Oops, an error
Loading. Please wait.

Time Flies When Youre Fucking Up My Life tab

34 views 1 this week
no commentswrite comment
1 2 3 4 5
3 more votes to show rating
add to favorites
×
Save as Personal and add changes to this tab that will be seen only by you. Learn more ›
×
You can save this tab as Personal to edit and correct it or add notes. All changes will be seen only by you. Learn more »
launch autoscroll
font size
0
reset
how to read this tab
guitar tuner
edit
Autoscroll
slow
fast
+/-
esc
set tempo
stop
About this tab version
As the author of this song, I know it to be correct. Was this info helpful? Yes No
TIME FLIES (WHEN YOU'RE FUCKING UP MY LIFE)
From the 2006 release "You're Not Gonna Want To Hear This"

[Intro]

   C          G            A           F                   G
e|--------------------------------------------------------------------------------|
B|--------------------------------------------------------------------------------|
G|-5----------12--10-9--7--14--16--18----------------10-10-------------12-12-9----| x 2
D|-5---------------------------------------8-8-10-10-------------12-12---------12-|
A|-3----------10--8--7--5--12--14--16--8-8-----------------10-10------------------|
E|--------------------------------------------------------------------------------|


[Verse 1]

                    C                           G
You are the biggest tease I know, but you can't have me.
       D                                       F                          G
You're wrapped so tight around my finger - You cut off circulation like a boa constrictor.
    C                       G
I'm not like them - I don't play these games.
D                                        F                            G
I'm the one who's running this show. Innuendo, no crescendo, when you speak in my ear I know...


[Pre-Chorus 1]

   A               G               F               G
e|-5~~-----5~~-----3~~-----3~~-----1~~-----1~~---------|
B|-----5~~-----5~~-----3~~-----3~~-----1~~-----1~~-----|
G|-----------------------------------------------------|
D|-------------------------------------------------5---|
A|-------------------------------------------------5---|
E|-------------------------------------------------3---|

   A                 G                           F
(I know) what you're trying to do, but you're confused.
           G
And if you keep this up, you're gonna lose.


[Chorus 1]

   C          G            A           F           G
e|-----------------------------------------------------------|
B|-----------------------------------------------------------|
G|-5----------12--10-9--7--14--16--18--10----------12--------|
D|-5-----------------------------------10----------12--------|
A|-3----------10--8--7--5--12--14--16--8-----------10--------|
E|-----------------------------------------------------------|

           C                                                          G
But in the end we're only friends because it never worked out like we wanted.
                A                F                G
So let's follow our dreams right off a cliff to a firey wreck.
           C                                                     G
And you'll never have it better than you'd have it if you had it with me.
                    A           F                 G
It's too bad you're crazy. It's just my luck. You had your chance - goodbye.


[Break 1]

   C               F       G       C               F       G
e|--------------------------------------------------------------|
B|--------------------------------------------------------------|
G|-5-------------------------------17--16--14--12--10------12---|
D|-5---------------3-------5------------------------------------|
A|-3---------------3-------5-------15--14--12--10--8-------10---|
E|-----------------1-------3------------------------------------|


[Verse 2]

         C                          G       A
Put that drink down, because you're driving me insane with your ambition.
F                             G
Everytime we talk you have me thinking and wishing
C                        G
I'm that guy. But I know better than that.
    A                                          F                                 G
Cuz you know you'll be right back with him, So I stay in control throughout this marathon mission.


[Guitar slide in middle of Verse 2]

   C               G
e|---------------------|
B|---------------------|
G|-5--7--9--10--12~~~--|
D|---------------------|
A|-3--5--7--8---10~~~--|
E|---------------------|


[Pre-Chorus 2]

   A               G               F               G
e|-5~~-----5~~-----3~~-----3~~-----1~~-----1~~---------|
B|-----5~~-----5~~-----3~~-----3~~-----1~~-----1~~-----|
G|-----------------------------------------------------|
D|-------------------------------------------------5---|
A|-------------------------------------------------5---|
E|-------------------------------------------------3---|

A                  G
I know what you're trying to do.
                 F            G
Don't waste your time or your breath on me, cuz I'll be fine.


[Chorus 2]

   C          G            A           F           G
e|-----------------------------------------------------------|
B|-----------------------------------------------------------|
G|-5----------12--10-9--7--14--16--18--10----------12--------|
D|-5-----------------------------------10----------12--------|
A|-3----------10--8--7--5--12--14--16--8-----------10--------|
E|-----------------------------------------------------------|

           C                                                          G
But in the end we're only friends because it never worked out like we wanted.
                A                F                G
So let's follow our dreams right off a cliff to a firey wreck.
           C                                                     G
And you'll never have it better than you'd have it if you had it with me.
                    A           F                 G
It's too bad you're crazy. It's just my luck. You had your chance - goodbye.


[Solo]

   C               F       G       C               F       G
e|----------------------------------------------------------------|
B|----------------------------------------------------------------|
G|-5-------------------------------5------------------------------|
D|-5---------------3-------5-------5---------------3-------5------|
A|-3---------------3-------5-------3---------------3-------5------|
E|-----------------1-------3-----------------------1-------3------|

   C               F       G       C               F       G
e|----------------------------------------------------------------|
B|----------------------------------------------------------------|
G|-17--16--14--12--17--16--19--17--17--16--14--12--17--16--19~~~--|
D|----------------------------------------------------------------|
A|-15--14--12--10--15--14--17--15--15--14--12--10--15--14--17~~~--|
E|----------------------------------------------------------------|


[Chorus 3]

   C          G            A           F           G
e|-----------------------------------------------------------|
B|-----------------------------------------------------------|
G|-5----------12--10-9--7--14--16--18--10----------12--------|
D|-5-----------------------------------10----------12--------|
A|-3----------10--8--7--5--12--14--16--8-----------10--------|
E|-----------------------------------------------------------|

           C                                                          G
But in the end we're only friends because it never worked out like we wanted.
                A                F                G
So let's follow our dreams right off a cliff to a firey wreck.
           C                                                     G
And you'll never have it better than you'd have it if you had it with me.
                    A           F                 G
It's too bad you're crazy. It's just my luck. You had your chance - goodbye.


[End chorus]

   D          A              B           G          A          D
e|----------------------------------------------------------------|
B|----------------------------------------------------------------|
G|-7----------14--12--11--9--16--18--20--12----------14--------7--|
D|-7-------------------------------------12----------14--------7--|
A|-5----------12--10--9---7--14--16--18--10----------12--------5--|
E|----------------------------------------------------------------|

           D                                                          A
But in the end we're only friends because it never worked out like we wanted.
                B                G                A
So let's follow our dreams right off a cliff to a firey wreck.
           D                                                     A
And you'll never have it better than you'd have it if you had it with me.
                    B           G                 A
It's too bad you're crazy. It's just my luck. You had your chance - goodbye.

            
            
Suggest correction
Creating personal tab
Creating personal tab
You can edit any tab online and save it as your Personal.

You can edit, replace or remove any tab part or add personal notes – all changes will be seen only by you.

Personal tabs can be accessed anytime from any device, even offline.
Learn more »
Give kudos to tab author, rate the tab!
1 2 3 4 5
comments
print report bad tab
guest
You may want to rate the tab now too:
select rating
Wanna post a correction for this tab? Suggest correction