Oops, an error
Loading. Please wait.

We Move On tab

22 views 1 this week
no commentswrite comment
1 2 3 4 5
3 more votes to show rating
add to favorites
×
Save as Personal and add changes to this tab that will be seen only by you. Learn more ›
×
You can save this tab as Personal to edit and correct it or add notes. All changes will be seen only by you. Learn more »
launch autoscroll
font size
0
reset
how to read this tab
guitar tuner
edit
Autoscroll
slow
fast
+/-
esc
set tempo
stop
About this tab version
As the author of this song, I know it to be correct. Was this info helpful? Yes No
WE MOVE ON
From the 2006 release "You're Not Gonna Want To Hear This"

[Intro]

   C#           E           A           C#     B
e|-------------------------------------------------|
B|-------------------------------------------------|
G|-6------------1-----9b----------------18-----16--| x 2
D|-6------------2-----------7----------------------|
A|-4------------2-----------7-----------16-----14--|
E|--------------0-----------5----------------------|


[Verse 1]

   C#           E           A           C#     B
e|-------------------------------------------------|
B|-------------------------------------------------|
G|-6------------1-----9b----------------6------4---| x 2
D|-6------------2-----------7-----------6------4---|
A|-4------------2-----------7-----------4------2---|
E|--------------0-----------5----------------------|
C#             E                                A
Abrasive and infections and a thousand jars of (f)lies -
               C#         B
Won't get this taste from my mouth.
C#               E                       A
Another cross we bare is another scar we share.
           C#       B
I won't forget what went down.


[Verse break 1]

   C#                      E   D# B                       E   D#
e|---------------------------------------------------------------|
B|-------------------------5p4p0~-------------------------5p4p0~-|
G|-----------------4h6p4h6------------------------4h6p4h6--------| x 2
D|---------4h6p4h6------------------------4h6p4h6----------------|
A|-4h6p4h6------------------------4h6p4h6------------------------|
E|---------------------------------------------------------------|


[Verse 2]

   C#           E           A           C#     B
e|-------------------------------------------------|
B|-------------------------------------------------|
G|-6--8--9--11--13----------14----------18-----16--| x 2
D|-------------------------------------------------|
A|-4--6--7--9---11----------12----------16-----14--|
E|-------------------------------------------------|
C#              E                              A
Our tongues are razor-sharp, and everything we say
       C#                B
slices through the air into our veins.
C#                          E                             A
It tastes like acid, and it feels like an axe inside your back.
      C#          B
But I know how to dull the pain.


[Pre-Chorus]

   C#           A           E           B
e|-----------------------------------------------------|
B|-----------------------------------------------------|
G|-18-----------14----------7-----------14---16--14-16-|
D|-----------------------------------------------------|
A|-16-----------12----------9-----------16---14--16-14-|
E|-----------------------------------------------------|

   C#           A           B
e|-----------------------------------------------------|
B|-----------------------------------------------------|
G|-18-----------14----------14-16-14-16-14-16-14-16----|
D|-----------------------------------------------------|
A|-16-----------12----------16-14-16-14-16-14-16-14----|
E|-----------------------------------------------------|


[Chorus]

D           A               C#              B                 D
And we move on, and we move on with nothing left to fall back on.
                A                  C#                  B               C#
Those things we kept might make us strong. And we move on, and we move on.


[Intro]

   C#           E           A           C#     B
e|-------------------------------------------------|
B|-------------------------------------------------|
G|-6------------1-----9b----------------18-----16--| x 2
D|-6------------2-----------7----------------------|
A|-4------------2-----------7-----------16-----14--|
E|--------------0-----------5----------------------|


[Verse 3]

C#          E                                  A
Pouring accusations when my method's tried and true,
       C#       B
and it suits me just fine.
C#                       E                    A
With your icy stare it's easier to peel this away.
        C#           B
I do it almost every time.

[Verse break 2]
   C#                      E   D# B                       E   D#
e|---------------------------------------------------------------|
B|-------------------------5p4p0~-------------------------5p4p0~-|
G|-----------------4h6p4h6------------------------4h6p4h6--------| x 2
D|---------4h6p4h6------------------------4h6p4h6----------------|
A|-4h6p4h6------------------------4h6p4h6------------------------|
E|---------------------------------------------------------------|


[Verse 4]

C#                E                           A
A little taste of asphalt and a lot of broken wings
           C#            B
built that callouses you see here.
C#                       E                          A
Sulfuric smiles and your burning eyes seem to be my thing,
       C#           B
but it never will become clear.


[Pre-Chorus]

   C#           A           E           B
e|-----------------------------------------------------|
B|-----------------------------------------------------|
G|-18-----------14----------7-----------14---16--14-16-|
D|-----------------------------------------------------|
A|-16-----------12----------9-----------16---14--16-14-|
E|-----------------------------------------------------|

   C#           A           B
e|-----------------------------------------------------|
B|-----------------------------------------------------|
G|-18-----------14----------14-16-14-16-14-16-14-16----|
D|-----------------------------------------------------|
A|-16-----------12----------16-14-16-14-16-14-16-14----|
E|-----------------------------------------------------|


[Chorus]

D           A               C#              B                 D
And we move on, and we move on with nothing left to fall back on.
                A                  C#                 B                    D
Those things we kept might make us strong. Forget the past - it's been too long.
            A               C#             B                   D
And we move on, and we move on, and broken shards of glass are gone.
              A                 C#                B               C#
Let's make it last for one more song. And we move on, and we move on.


[Outro]

   C#                      E   D# B                       E   D#
e|---------------------------------------------------------------|
B|-------------------------5p4p0~-------------------------5p4p0~-|
G|-----------------4h6p4h6------------------------4h6p4h6--------| x 2
D|---------4h6p4h6------------------------4h6p4h6----------------|
A|-4h6p4h6------------------------4h6p4h6------------------------|
E|---------------------------------------------------------------|



************************************

| h  Hammer-on
| p  Pull-off
| b  Bend
| ~  Vibrato

************************************
Suggest correction
Creating personal tab
Creating personal tab
You can edit any tab online and save it as your Personal.

You can edit, replace or remove any tab part or add personal notes – all changes will be seen only by you.

Personal tabs can be accessed anytime from any device, even offline.
Learn more »
Give kudos to tab author, rate the tab!
1 2 3 4 5
comments
print report bad tab
guest
You may want to rate the tab now too:
select rating
Wanna post a correction for this tab? Suggest correction