Oops, an error
Loading. Please wait.

Party Like A Rockstar tab

version 3
version 3

Interactive

27,161 views 3 this week
45 commentsread comments
1 2 3 4 5
x 35
add to favorites
×
Save as Personal and add changes to this tab that will be seen only by you. Learn more ›
×
You can save this tab as Personal to edit and correct it or add notes. All changes will be seen only by you. Learn more »
launch autoscroll
font size
0
reset
how to read this tab
guitar tuner
edit
Autoscroll
slow
fast
+/-
esc
set tempo
stop
Author
Difficulty
Song: Party Like A Rock Star

Artist: Shop Boyz

tabbed by: David Chiaramonte

OK. Some people think that this song has one part that keeps repeating itself. After 
2 hours of continuously playing that song, I finally got what I think is the right version 
the tab lol. Enjoy!

~ = hold note for about 2 seconds

Guitar 1:
e|-------------------------------------------------------------|
B|-------------------------------------------------------------|
G|------1-2--4444-44-4-6---------------------------------------|
D|-4--4--------------------------------------------------------|
A|-------------------------------------------------------------|
E|-------------------------------------------------------------|

e|-------------------------------------------------------------|
B|-------------------------------------------------------------|
G|------1-2--6666-44-2-4---------------------------------------|
D|-4--4--------------------------------------------------------|
A|-------------------------------------------------------------|
E|-------------------------------------------------------------|

e|-------------------------------------------------------------|
B|-------------------------------------------------------------|
G|------1-2--4444-44-4-6---------------------------------------|
D|-4--4--------------------------------------------------------|
A|-------------------------------------------------------------|
E|-------------------------------------------------------------|

e|-------------------------------------------------------------|
B|-------------------------------------------------------------|
G|--7--7-6-4--4-4-4-4-4-2-4------------------------------------|
D|-------------------------------------------------------------|
A|-------------------------------------------------------------|
E|-------------------------------------------------------------|

THEN KEEP REPEATING ALL OF THAT THE ENTIRE SONG.

Guitar 2:
e|---9-10-7-9----7---------------------------------------------|
B|------------10----9-10---------------------------------------|
G|-------------------------------------------------------------|
D|-------------------------------------------------------------|
A|-------------------------------------------------------------|
E|-------------------------------------------------------------| x3

then

e|---10~-~-~-------9~-~-~--------------------------------------|
B|-------------------------------------------------------------|
G|-------------------------------------------------------------|
D|-------------------------------------------------------------|
A|-------------------------------------------------------------|
E|-------------------------------------------------------------|

KEEP REPEATING THAT THROUGH THE SONG ALSO.

There you go. It sounds right on my guitar. Comment and tell me what you think.

            
            
Suggest correction
Creating personal tab
Creating personal tab
You can edit any tab online and save it as your Personal.

You can edit, replace or remove any tab part or add personal notes – all changes will be seen only by you.

Personal tabs can be accessed anytime from any device, even offline.
Learn more »
comments
print report bad tab
45 comments total. Showing first comments.
+1 reply
Sound Mind 536 Jul 03, 2007 09:26 AM

thats how i play it.

0 reply
XhooperX 10 Jul 04, 2007 03:01 PM

rofl... i really didn't expect a rap song to be on here... how lame but coo. 5 stars. "dog"

0 reply
XhooperX 10 Jul 04, 2007 03:01 PM

i forgot something... "t-t-t-totally duuuudde!"

guest
You may want to rate the tab now too:
select rating
Wanna post a correction for this tab? Suggest correction