Oops, an error
Loading. Please wait.

Darling Ill Be Your Werewolf chords

version 4
version 4

Whole song

Interactive

60 views 1 this week
no commentswrite comment
1 2 3 4 5
3 more votes to show rating
add to favorites
×
Save as Personal and add changes to this tab that will be seen only by you. Learn more ›
×
You can save this tab as Personal to edit and correct it or add notes. All changes will be seen only by you. Learn more »
launch autoscroll
font size
0
reset
transpose
0
reset
display chords
guitar tuner
edit
Autoscroll
slow
fast
+/-
esc
set tempo
stop
Author
Difficulty
Strumming
There is no strumming pattern for this song yet. and get +5 IQ
-------------------------------------------------------------------------------
                             DARLING I'LL BE YOUR WEREWOLF - Short Stack
-------------------------------------------------------------------------------
Tabbed by: Olivia Cooper
E-mail: ooliviaae@gmail.com


This is the acoustic version to 'Werewolves' from their album 'This Is Bat Country'.
This version was a bonus track on SITNB on iTunes.


Tuning: Standard

The whole song is basically just Em, C, G, D, until the solo comes in


Verse:
Em         C
Today I went,
              G
To speak to god,
          D         Em
But the sky was empty,
             C              G  D         Em
And the clouds fell down around me and you,
          C
As we stood,
           G
Hand in hand,
       C           Em
I hope you invent me,
            C             G   D
A sea of love in which to drown me and you,



Chorus:
Em                C
We're going to hell,
                   G
Just because we're Werewolves,


We're werewolves,
D
Ahoo, ahoo, ahoo,



[Verse]

[Chorus x2]


Bridge:
Em        C           G
It's eleven fifty seven,
           D
She tastes so sweet,
              Em
And I want more,
       C
Just a second,
       G
Lay in heaven,
          D
As my heart,

Hit, hit, hits the floor,


Solo:
e---------------------------------------------------------------------------|
B---------------------------------------------------------------------------|
G--------2-4-2---2-4-7-4-2-------2-4-2---2-4-7-4--------2-4-2---2-4-7-4-2---|
D--0-2-5-------5-----------0-2-5-------5----------0-2-5-------5-------------|
A---------------------------------------------------------------------------|
E---------------------------------------------------------------------------|

e-----------------------------------------------------------------------------------------|
B-----------------------------------------------------------------------------------------|
G--7----------------------------------7-----7-----7-----7-----7-7/9-7-------7/9-7---------|
D----5-4-5-7-5-4-5-7-5-4-5-7-5-4--4-5---4-5---4-5---4-5---4-5---------9-7-5-------9-7-5---|
A-----------------------------------------------------------------------------------------|
E-----------------------------------------------------------------------------------------|

e-----------------------|
B-----------------------|
G------7---7-----7--7---|
D--4-5---5---4-5--5-----|
A-----------------------|
E-----------------------|


[Chorus]


End with Em and let it ring ~

            
            
Suggest correction
Creating personal tab
Creating personal tab
You can edit any tab online and save it as your Personal.

You can edit, replace or remove any tab part or add personal notes – all changes will be seen only by you.

Personal tabs can be accessed anytime from any device, even offline.
Learn more »
Give kudos to tab author, rate the tab!
1 2 3 4 5
comments
print report bad tab
guest
You may want to rate the tab now too:
select rating
Wanna post a correction for this tab? Suggest correction