Oops, an error
Loading. Please wait.

Planets bass

version 1
version 1

Whole song

937 views 3 this week
no commentswrite comment
1 2 3 4 5
2 more votes to show rating
add to favorites
×
Save as Personal and add changes to this tab that will be seen only by you. Learn more ›
×
You can save this tab as Personal to edit and correct it or add notes. All changes will be seen only by you. Learn more »
launch autoscroll
font size
0
reset
guitar tuner
edit
Autoscroll
slow
fast
+/-
esc
set tempo
stop
Author
Difficulty
Planets - Short Stack 
Tabbed By: Mitch
This is how I play it, it sounds right but I don't think it is 100% correct
 
Intro
G-----------------|  
D-----------------|
A-1-------4-3-1---|
E-----2-----------|

Main Riff
G----------------------------------------| 
D----------------------------------------|
A--11111111----------4444333311111111----|
E-----------22222222---------------------|

Verse
G----------------------------------------|
D----------------------------------------|
A--------------------44443333------------| X2
E--6646-46646-466464---------------------|

Main Riff
G----------------------------------------|
D----------------------------------------|
A--11111111----------4444333311111111----| X5
E-----------22222222---------------------|

Verse - Come in at "Hail the cop cars"
G----------------------------------------|
D----------------------------------------|
A----------------------------------------|
E--6646-46646-466464---------------------|

Main Riff
G----------------------------------------|
D----------------------------------------|
A--11111111----------4444333311111111----| X4
E-----------22222222---------------------|

Play after you finish the main riff
G----------------------------------------| 
D----------------------------------------|
A--4444333311111111----------------------|
E----------------------------------------|

Bridge - Come in at "only to get to you"
G----------------------------------------|
D----------------------------------------|
A----------------------------------------|
E--6---6-2---2-4-------------------------|

Main Riff
G----------------------------------------|
D----------------------------------------|
A--11111111----------4444333311111111----| X6
E-----------22222222---------------------|

Ending - Play right after main riff
G----------------------------------------|
D----------------------------------------|
A--4444333311111111--44-33---------------|
E----------------------------------------|

            
            
Suggest correction
Creating personal tab
Creating personal tab
You can edit any tab online and save it as your Personal.

You can edit, replace or remove any tab part or add personal notes – all changes will be seen only by you.

Personal tabs can be accessed anytime from any device, even offline.
Learn more »
Give kudos to tab author, rate the tab!
1 2 3 4 5
comments
print report bad tab
guest
You may want to rate the tab now too:
select rating
Wanna post a correction for this tab? Suggest correction