Oops, an error
Loading. Please wait.

Sway Sway Baby tab

version 1
version 1

Whole song

7,944 views 1 this week
1 commentread comment
1 2 3 4 5
x 4
add to favorites
×
Save as Personal and add changes to this tab that will be seen only by you. Learn more ›
×
You can save this tab as Personal to edit and correct it or add notes. All changes will be seen only by you. Learn more »
launch autoscroll
font size
0
reset
how to read this tab
guitar tuner
edit
Autoscroll
slow
fast
+/-
esc
set tempo
stop
First time for tabing...let me know what you think...


/= slide


Intro

e|--44--444--44--444--44--444--44--444-|
B|--44--444--44--444--44--444--44--444-|
G|--66--666--66--666--66--666--66--666-|
D|--66--666--66--666--66--666--66--666-|
A|--44--444--44--444--44--444--44--444-|
E|-------------------------------------|

Chours

(note: the strumming is pretty simple just cant be bothered to write it out)
e|--4---6---6---4---|-4--|
B|--4---6---6---4---|-4--|
G|--6---8---6---4---|-6--|
D|--6---8---8---6---|-6--|
A|--4---6---8---6---|-4--|
E|----------6---4---|----|

Solo
e|-----------------|
B|-2------1--4/555-|
G|---1--3----------|
D|-----------------|
A|-----------------|
E|-----------------|

Verse

e|-4--3--1--9---|
B|-4--3--1--9---|
G|-6--5--3--11--|
D|-6--5--3--11--|times 2
A|-4--3--1--9---|
E|--------------|

e|--4--444--444--444--|
B|--4--444--444--444--|
G|--6--666--666--666--|slide pick down 5th string
D|--6--666--666--666--|
A|--4--444--444--444--|
E|--------------------|

Chorus

e|--4---6---6---4---|
B|--4---6---6---4---|
G|--6---8---6---4---|
D|--6---8---8---6---|
A|--4---6---8---6---|
E|----------6---4---|


"sway baby sway baby ohhh"
e|-2--4--2--4-|
B|-2--4--2--4-|
G|-2--4--2--4-|
D|-4--6--4--6-|
A|-4--6--4--6-|
E|-2--4--2--4-|

Chorus

e|--4---6---6---4---|
B|--4---6---6---4---|
G|--6---8---6---4---|
D|--6---8---8---6---|
A|--4---6---8---6---|
E|----------6---4---|


solo ending

e|----------------------------------------------------|
B|-2-----1-5-5-5-5-2-5-7-7/9--7/9--7/9--7/9--9-7-9-6--|
G|---1-3----------------------------------------------|
D|----------------------------------------------------|
A|----------------------------------------------------|
E|----------------------------------------------------|

            
            
Suggest correction
Creating personal tab
Creating personal tab
You can edit any tab online and save it as your Personal.

You can edit, replace or remove any tab part or add personal notes – all changes will be seen only by you.

Personal tabs can be accessed anytime from any device, even offline.
Learn more »
comments
print report bad tab
1 comment total.
0 reply
Munky92 15 Oct 10, 2009 09:21 PM

you mad an error with the solo. not a bad one just a little error at the end.

e|----------------------------------------------------|
B|-2-----1-5-5-5-5-2-5-7-7/9--7/9--7/9--7/9--9-7------|
G|---1-3-----------------------------------------9-6--|
D|----------------------------------------------------|
A|----------------------------------------------------|
E|----------------------------------------------------|

there are other parts in the solo that i cant be bothered editing, just repetition and yeah haha

guest
Wanna post a correction for this tab? Suggest correction