Oops, an error
Loading. Please wait.

Thanks But No Thanks tab

by Shoshin
7 views 1 this week
no commentswrite comment
1 2 3 4 5
3 more votes to show rating
add to favorites
×
Save as Personal and add changes to this tab that will be seen only by you. Learn more ›
×
You can save this tab as Personal to edit and correct it or add notes. All changes will be seen only by you. Learn more »
launch autoscroll
font size
0
reset
how to read this tab
guitar tuner
edit
Autoscroll
slow
fast
+/-
esc
set tempo
stop
About this tab version
This tab was made for one guitar player that can play the main parts of the song. I was mainly oriented on the original song from the upcoming record but I had also watched the internet for live videos...found one for that song :-) Well, support that rising band...there are a few great songs out there and the new record will be great. cheers. Was this info helpful? Yes No
Artist: Shoshin
Album:  A Billion Happy Endings
Song:   Thanks But No Thanks
Tuning: Standard (EADgbe)
Tabbed by: dupree79

(verse start @ 0:19 min | 4 times)
e|-----------------------------------1--|
b|--------------------------------------|
g|-----------7--6-----6--------3--------|
D|--7--7--7--------8-----5--5-----2-----|
A|--------------------------------------|
E|--------------------------------------|

(interlude 1 start @ 0:48 | 2 times)
e|--12--10-|-5--6--|
b|--11--11-|-6--5--|
g|--9---9--|-3--3--|
D|---------|-------|
A|---------|-------|
E|---------|-------|

(verse start @ 0:58 min | 4 times)
e|-----------------------------1--|
b|--------------------------------|
g|--------7--6-----------3--------|
D|--7--7--------8--5--5-----2-----|
A|--------------------------------|
E|--------------------------------|

(chorus start @ 1:17 min | 4 times)
e|-----------------------------------1--|
b|--------------------------------------|
g|-----------7--6-----6--------3--------|
D|--7--7--7--------8-----5--5-----2-----|
A|--------------------------------------|
E|--------------------------------------|

(interlude 2 start @ 1:46 | 4 times)
e|--12--10-|-5--6--|
b|--11--11-|-6--5--|
g|--9---9--|-3--3--|
D|---------|-------|
A|---------|-------|
E|---------|-------|

(verse start @ 2:06 min | 2 times
e|-----------------------------------1--|
b|--------------------------------------|
g|-----------7--6-----6--------3--------|
D|--7--7--7--------8-----5--5-----2-----|
A|--------------------------------------|
E|--------------------------------------|

(chorus start @ 2:15 min | 4 times)
e|-----------------------------------1--|
b|--------------------------------------|
g|-----------7--6-----6--------3--------|
D|--7--7--7--------8-----5--5-----2-----|
A|--------------------------------------|
E|--------------------------------------|

(distortion part start @ 2:34 min)
e|---------------------------------------------|---------------------------------------------|
b|---------------------------------------------|---------------------------------------------|
g|-------------------------------------7--7--7-|---------------------------------------------|
D|--8--8--8--8--10--10--7--7--7--5--7--7--7--7-|-8--8--8--8--10--10--7--7--7--5--7--7--7--5--|
A|--8--8--8--8--10--10--7--7--7--5--7--5--5--5-|-8--8--8--8--10--10--7--7--7--5--7--7--7--5--|
E|--6--6--6--6--8---8---5--5--5--3--5--5--5--5-|-6--6--6--6--8---8---5--5--5--3--5--5--5--3--|

e|------------------------------------------------------|---------------------------------------------|
b|------------------------------------------------------|---------------------------------------------|
g|--15--15--15--15--17--17--14--14--14--12--14--7--7--7-|-15--15--15--15--17--17--14--22--22--22--22--|
D|--x---x---x---x---x---x---x---x---x---x---x---x--x--x-|-x---x---x---x---x---x---x---x---x---x---x---|
A|--13--13--13--13--15--15--12--12--12--10--12--5--5--5-|-13--13--13--13--15--15--12--20--20--20--20--|
E|------------------------------------------------------|---------------------------------------------|

e|--------------|
b|--------------|
g|--21--21--21--|
D|--x---x---x---|
A|--19--19--19--|
E|--------------|

(chorus start @ 2:53 min | 4 times)
e|-----------------------------------1--|
b|--------------------------------------|
g|-----------7--6-----6--------3--------|
D|--7--7--7--------8-----5--5-----2-----|
A|--------------------------------------|
E|--------------------------------------|

(last chord start @ 3:12 min play once & let ring)
e|-----|
b|-----|
g|--7--|
D|--7--|
A|--5--|
E|--5--|
    r

******************

| x   mute
| r   let ring

*******************

            
            
Suggest correction
Creating personal tab
Creating personal tab
You can edit any tab online and save it as your Personal.

You can edit, replace or remove any tab part or add personal notes – all changes will be seen only by you.

Personal tabs can be accessed anytime from any device, even offline.
Learn more »
Give kudos to tab author, rate the tab!
1 2 3 4 5
comments
print report bad tab
guest
You may want to rate the tab now too:
select rating
Wanna post a correction for this tab? Suggest correction