Oops, an error
Loading. Please wait.

Im A Gun Tab

668 views 3 this week
no commentswrite comment
1 2 3 4 5
please rate
add to favorites
launch autoscroll
font size
0
reset
how to read this tab
guitar tuner
Autoscroll
slow
fast
+/-
esc
set tempo
stop
Help us to improve Ultimate-Guitar.com Take our survey!
×
Author
Tuning
D A D G B E
Artist: Shotgun Messiah
Song: I'm a Gun
Album: Violent New Breed

Tabbed by: Rod Z
E-mail: rodzombie_89@hotmail.com

The first track off this great album.
Shotgun Messiah rocks. Tim Skold and Harry Cody ruled in those years

Tuning: Drop D


Intro Riff
E|-----------------------------------------|
B|------------------6--6-5---6--6-5--------|
G|------------------5--5-5---5--5-5--------|
D|-----------------------------------------|
A|-0000000000000000------------------------|
D|-0000000000000000------------------------|

Verses:
E|-----------------------------------------|
B|----------------------6-5---6-5----------|
G|----------------------5-5---5-5----------|
D|-----------------------------------------|
A|-00000000000000000000--------------------|
D|-00000000000000000000--------------------|

Pre-Chorus:
E|----------------------------------------|
B|----------------------------------------|
G|-3--3-3-3--7--7-7-7--3--3-3-3--7--7-7-7-|
D|-3--3-3-3--7--7-7-7--3--3-3-3--7--7-7-7-|
A|-1--1-1-1--5--5-5-5--1--1-1-1--5--5-5-5-|
D|----------------------------------------|

Chorus:                   3 times then:
E|-----------------------|----------------------|
B|-----------------------|-6--6-5--6--6-5-------|
G|-9---------------------|-5--5-5--5--5-5-------|
D|-9---------------------|----------------------|
A|-7-0000000000000000----|----------------------|
D|---0000000000000000----|----------------------|


Interlude:
E|-----------------------|
B|-----------------------|
G|-----------------------|
D|-----------------------|
A|-7-x-7-x-7-x--5-10-5-7-|
D|-7-x-7-x-7-x--5-10-5-7-|

(Solo)
Backing for solo:               x4
E|-----------------------------------|
B|-----------------------------------|
G|-----------------------------------|
D|-----------------------------------|
A|-00000000000000000000-5-10-5-7-----|
D|-00000000000000000000-5-10-5-7-----|


Lyrics:

I'm a runaway missile, you're my guiding light
oh honey, you can make me detonate
I'm the copulation of the new salvation
I am heroin an cyanide

I'm a thorn in the side of your alibi
I'm a technicolor nightmare ride
I'm a repossession of a blind obsession
I'm a chainsaw stuck in overdrive

let's start a fire
let's walk the wire
hell, yeah

I'm a gun, I'm second to none
I'm a gun, I'm second to none
I'm a gun

I'm a torture chamber, I'm the perfect stranger
I'm the meltdown at the nuclear plant
I'm a .357 on my way to heaven
I'm, a freight train running out of track

let's start a fire
let's walk the wire
hell, yeah

I'm a gun, I'm second to none
I'm a gun, I'm second to none
I'm a gun

I'm a gun, I'm second to none
I'm a gun, I'm second to none
I'm a gun

I ain't afraid of dying
I ain't got spit to lose
I'm gonna make the headlines
I'm gonna make the late night news
wop-bop-a-loo-bop, baby, don't you step on my blue suede shoes

(solo)

I'm the degradation of the constellation
I'm unwritten laws in black and white
I'm a silicone chip on a powertrip
I'm an overload of megabyte

let's start a fire
let's walk the wire
watch me bleeding holy gasoline

I'm a gun, I'm second to none
I'm a gun, I'm second to none
I'm a gun

I'm a gun, I'm second to none
I'm a gun, I'm second to none
I'm a gun

I'm a gun, I'm second to none
I'm a gun, I'm second to none
I'm a gun


Suggest correction
What's this?
You can suggest a correction to this tab. Community and Mods will review your correction and vote to approve or reject it.
comments
We did not receive enough feedback on this tab! Please rate:
print report bad tab
1 2 3 4 5
guest
You may want to rate the tab now too:
select rating
Please do not post tabs as comments. Select "correction" instead!