Oops, an error
Loading. Please wait.

But Then Again No Tab

351 views 3 this week
no commentswrite comment
1 2 3 4 5
please rate
add to favorites
launch autoscroll
font size
0
reset
how to read this tab
guitar tuner
Tab Pro tools
  • play this tab
  • loop segment
  • change instrument
  • show fretboard
  • metronome
×
Best way to learn
"But Then Again No"
Autoscroll
slow
fast
+/-
esc
set tempo
stop
Contributor
-----------------------------------------------------------
         But Then Again No - Shout Out Louds
-----------------------------------------------------------

Tabbed by: Matty C
Email: Happyquakiduck@msn.com

Tuning: Standard EADGBE

*****Guitar 1*****

Intro
F, Am, F, Am, Am/G, F, Am/G, C

Verse
F, Am, F, Am, Am/G, F, Am/G, C
F, Am, F, Am.
F, Am, F, Am, Am/G, F, Am/G, C
F, Am, F, Am, Am/G, F, Am/G, C

It's nearly impossible to hear. I'm sure there are little variations.
However, they are during parts where it doesnt really matter.


*****Guitar 2***** Piano transcribed for guitar
e|--------------------------------------------------------------------|
B|--------------------------------------------------------------------|
G|--17-14-17-14--17-14-17-14--17-14-17-14--17-14-17-14----------------|
D|--------------------------------------------------------------------|
A|--------------------------------------------------------------------|
E|--------------------------------------------------------------------|

e|----------------------------------------------------------13--------|
B|------------------------------------------17-15-13--17-15-----------|
G|--12-14-17-14--12-14-17-14--12-14-17-14-----------------------------|
D|--------------------------------------------------------------------|
A|--------------------------------------------------------------------|
E|--------------------------------------------------------------------|

or

e|--------------------------------------------------------------------|
B|--13-10-13-10--13-10-13-10--13-10-13-10--13-10-13-10----------------|
G|--------------------------------------------------------------------|
D|--------------------------------------------------------------------|
A|--------------------------------------------------------------------|
E|--------------------------------------------------------------------|

e|--------------------------------------12-10-8--12-10-13-------------|
B|--8-10-13-10--8-10-13-10--8-10-13-10--------------------------------|
G|--------------------------------------------------------------------|
D|--------------------------------------------------------------------|
A|--------------------------------------------------------------------|
E|--------------------------------------------------------------------|


For the verse you can just do the chords that Guitar 1 does
Then at "I have to do this for myself" and "Something always comes out"
Play this little riff.
e|--------------------------------------------------------------------|
B|-5h6-6-6-5h6-6-6-5h6-6-6-5\1-1-1--Repeat----------------------------|
G|--------------------------------------------------------------------|
D|--------------------------------------------------------------------|
A|--------------------------------------------------------------------|
E|--------------------------------------------------------------------|

Chords Used
_____________
F     x33211 |
Am    x02210 |
Am/G  302210 |
C     032010 |
_____________|



This song is very mellow. The riffs come in at various times
But they are very obvious so I'm sure you guys can handle it.

I would like to dedicate this tab to Ritchie Campkin! =)

Questions, comments, compliments, or corrections go to Happyquakiduck@msn.com
Matty C <3


| /  slide up
| \  slide down
| h  hammer-on
| p  pull-off
| ~  vibrato
| +  harmonic
| x  Mute note
=======================================================================
comments
We did not receive enough feedback on this tab! Please rate:
print report bad tab
1 2 3 4 5
I want to post or [tab]
guest
You may want to rate the tab now too:
select rating
Please do not post tabs as comments. Select "correction" instead!