Oops, an error
Loading. Please wait.

Fall Hard Tab

version 2
version 2

Whole song

1,616 views 3 this week
1 commentread comment
1 2 3 4 5
please rate
add to favorites
launch autoscroll
font size
0
reset
how to read this tab
guitar tuner
Autoscroll
slow
fast
+/-
esc
set tempo
stop
Help us to improve Ultimate-Guitar.com Take our survey!
×
Contributor
Difficulty
intermediate
-------------------------------------------------------------------------------
                             Fall Hard - Shout Out Louds
-------------------------------------------------------------------------------
Tabbed by:anthone               
Email:imwatersoluable@gmail.com

Tuning:
Standard

ok so this is tabbed out for a single guitar. kinduv a difficult song 
to play alone because it doesn't sound very "full" but its fun to play
along with a friend or if you use a program like iShred Live. have fun!

intro
e|---------------------------------------------------------------------------|
B|(bar with same finger holding 12th fret)13p12------------------------------|
G|---------------------------------------------------------------------------|
D|-----------------------12h14 12h14 12h14-----------------------------------|
A|---------------------------------------------------------------------------|
E|---------------------------------------------------------------------------|

all verses
e|---------------------------------------------------------------------------|
B|---------------------------------------------------------------------------|
G|palm mute all these notes and play with the rhythm 9,10,7,5,7,9------------|
D|---------------------------------------------------------------------------|
A|---------------------------------------------------------------------------|
E|---------------------------------------------------------------------------|

continued from above but without mute leading in to chorus
e|-8-------------------------------------------------------------------------|
B|-----8strum this 16 times--------------------------------------------------|
G|-----9---------------------------------------------------------------------|
D|-----10--------------------------------------------------------------------|
A|-----10(this note is optional but it sounds fuller)------------------------|
E|---------------------------------------------------------------------------|

chorus/main riff 
e|----------------------------(repeat as needed)-----------------------------|
B|-15\13----15-17--------------8-10------5-------15\13---3-------------------|
G|-16\14---------16-17-19-----------9\7----5-----16\14---4-hold then do intro|
D|-17\15-----------------17----------------------17\15---5-------------------|
A|---------------------------------------------------------------------------|
E|---------------------------------------------------------------------------|

(replay intro/verse/main riff)

ending
e|-(do this four times)---------(end on this)--------------------------------|
B|-15h17-----------------------------8---------------------------------------|
G|-16---16-17-19---------------------9---------------------------------------|
D|-17--------------------------------10--------------------------------------|
A|-----------------------------------10(optional note as above)--------------|
E|---------------------------------------------------------------------------|



random stuff..these chords will complete some of the gaps, listen for them
they are in the beginning and in the song a little
e|---------------------------------------------------------------------------|
B|-17----10----5-------------------------------------------------------------|
G|-16----9-----6-------------------------------------------------------------|
D|-17----10----5-------------------------------------------------------------|
A|-15----8-----3-------------------------------------------------------------|
E|---------------------------------------------------------------------------|

at around 2:20 theres this little half muted pick and chord to hold
e|---------------------------------------------------------------------------|
B|-13------------------------------3-----------------------------------------|
G|-14-sharp individual strums------4-hold------------------------------------|
D|-15------------------------------5-----------------------------------------|
A|---------------------------------------------------------------------------|
E|---------------------------------------------------------------------------|

random fill notes that are actually played by piano in song
e|---------------------------------------------------------------------------|
B|---------------------------------------------------------------------------|
G|-12--9------12--9--7(this isn't exact order but these are the notes)-------|
D|------7--10----------------------------------------------------------------|
A|---------------------------------------------------------------------------|
E|---------------------------------------------------------------------------|


************************************

| /   slide up
| \   slide down
| h   hammer-on
| p   pull-off
| ~   vibrato
| +   harmonic
| x   Mute note
| b   Bend
| pb  Pre-bend
| br  Bend release
| pbr Pre-bend release
| brb Bend release bend

************************************
comments
We did not receive enough feedback on this tab! Please rate:
print report bad tab
1 2 3 4 5
1 comment total.
0 reply
hgrf93 149 wrote on May 13 2015, 10:27 pm

Good tab but I think the intro sounds bettter like this (no hammer-ons and starting on the 14th fret instead of the 12th in the D string):
E|-----------------------------------------------------------------------|
B|---------------------------13-12---------------------------------------|
G|------------12-12-12-12-12---------------------------------------------|
D|------------14-12-14-12-14---------------------------------------------|
A|-----------------------------------------------------------------------|
E|-----------------------------------------------------------------------|

I want to post or [tab]
guest
You may want to rate the tab now too:
select rating
Please do not post tabs as comments. Select "correction" instead!