Oops, an error
Loading. Please wait.

Moon Bass Tab

203 views 1 this week
no commentswrite comment
1 2 3 4 5
3 more votes to show rating
add to favorites
launch autoscroll
font size
0
reset
guitar tuner
Autoscroll
slow
fast
+/-
esc
set tempo
stop
Help us to improve Ultimate-Guitar.com Take our survey!
×
Author
Difficulty
novice
Intro (0:00 - 00:03)
G----------|
D----------|
A-5-5-5-5--|
E----------|

(00:04 - 02:18)
G---------------------------------------------|
D---------------------------------------------|
A-5-55-5-555----------------------------------|
E------------7-77-7-777-5-55-5-555-3-33-3-333-|

(2:19 - 2:35)

G-----------------------------------|
D-----------------------------------|
A-5-55-5-555------------------------|
E------------7-77-7-777-5~-------3~-|

(2:36 - 2:39)
G----------|
D----------|
A-5(x16)---|
E----------|

(2:39 - until the end)
G----------------------------------|
D----------------------------------|
A-5(x16)---------------------------|
E-------7(x16)-5(x16)-3(x16)-------|
Suggest correction
Give kudos to tab author, rate the tab!
1 2 3 4 5
comments
print report bad tab
guest
You may want to rate the tab now too:
select rating
Wanna post a correction for this tab? Suggest correction