Oops, an error
Loading. Please wait.

Never Ever Tab

1,717 views 1 this week
no commentswrite comment
1 2 3 4 5
please rate
add to favorites
launch autoscroll
font size
0
reset
how to read this tab
guitar tuner
Autoscroll
slow
fast
+/-
esc
set tempo
stop
Help us to improve Ultimate-Guitar.com Take our survey!
×
---------------------------------------------------------------------------
                             Never Ever - Shout Out Louds
---------------------------------------------------------------------------
Tabbed by: Matty C
Email: Happyquakiduck@msn.com   

Tuning: Standard EADGBE

Alrighty, this is one of the last Shout Out Loud songs I have left to tab
Play with a lot of treble, reverb and echo/delay

*****Guitar 1*****

Keep this main riff going throughout the song
e|-----------5---4---5---------------------------------|
B|-----------5---5---7---------------------------------|
G|-----------6---6---7---------------------------------|
D|----------7---6---7----------------------------------|
A|----------7---4---5----------------------------------|
E|----------5------------------------------------------|

*****Guitar 2*****
e|-----------------------------------------------------|
B|-----------------------------------------------------|
G|-----------------------------------------------------|
D|-----------------------------------------------------|
A|-----------------------------------------------------|
E|-/10\/10\--------------------------------------------|

Chorus
e|-----------------------------------------------------|
B|-----------------------------------------------------|
G|--66666666--99999999--66666666--77777777-------------|
D|--66666666--99999999--66666666--77777777-------------|
A|--44444444--77777777--44444444--55555555-------------|
E|-----------------------------------------------------|


At around 2:04 there is a little guitar riff
I usually improv around there
But this riff will do
e|-5---4--5---4--5/9\5/9^\5\4---4-5--------------------|
B|---5------5-----------------5------------------------|
G|-----------------------------------------------------|
D|-----------------------------------------------------|
A|-----------------------------------------------------|
E|-----------------------------------------------------|

Somewhere around 2:54 a little palm muted riff starts
e|-----------------------------------------------------|
B|-----------------------------------------------------|
G|-----------------------------------------------------|
D|-222-0------222-0------222-0-------------------------|
A|-------444--------444--------444-2224444-------------|
E|-----------------------------------------------------|
Repeat this riff a little and end on A5

e|-----------------------------------------------------|
B|-----------------------------------------------------|
G|-----------------------------------------------------|
D|-2~--------------------------------------------------|
A|-0~--------------------------------------------------|
E|-----------------------------------------------------|


Yep yep, good song. 

Let's see.
I would like to dedicate this one to Kevy, Mar Mar, Neil, and Criz.

Questions, comments, compliments, or corrections send to Happyquakiduck@msn.com
Matty C <3


| /  slide up
| \  slide down
| h  hammer-on
| p  pull-off
| ~  vibrato
| +  harmonic
| x  Mute note
| ^  Bend note
=============================================================================
Suggest correction
Give kudos to tab author, rate the tab!
1 2 3 4 5
comments
print report bad tab
guest
You may want to rate the tab now too:
select rating
Please do not post tabs as comments. Select "correction" instead!