Oops, an error
Loading. Please wait.

Oh Sweetheart Tab

1,345 views 1 this week
no commentswrite comment
1 2 3 4 5
please rate
add to favorites
launch autoscroll
font size
0
reset
how to read this tab
guitar tuner
Autoscroll
slow
fast
+/-
esc
set tempo
stop
Help us to improve Ultimate-Guitar.com Take our survey!
×
Author
-----------------------------------------------------------------------------
                             Oh, Sweetheart - Shout Out Louds
-----------------------------------------------------------------------------
Tabbed by: Matty C
Email: Happyquakiduck@msn.com

Tuning: Standard EADGBE


*****GUITAR 1*****

e|--------------------------------------------------------------------------|
B|---------3-0-----0--------------------------------------------------------|
G|-0h2p0---------2----X6----------------------------------------------------|
D|-------0------------------------------------------------------------------|
A|--------------------------------------------------------------------------|
E|--------------------------------------------------------------------------|
    Then
e|--------------------------------------------------------------------------|
B|--------------------------------------------------------------------------|
G|--------------------------------------------------------------------------|
D|--------------------------------------------------------------------------|
A|-2/5-2-0-22--0-2/5-2-0-2--------------------------------------------------|
E|--------------------------------------------------------------------------|


*****GUITAR 2*****

Silent for two measures then
    C G   C G   C G   C G
e|--3-3---3-3---3-3---3-3---------------------------------------------------|
B|--5-3---5-3---5-3---5-3---------------------------------------------------|
G|--5-4---5-4---5-4---5-4---------------------------------------------------|
D|--5-5---5-5---5-5---5-5---------------------------------------------------|
A|--3-5---3-5---3-5---3-5---------------------------------------------------|
E|----3-----3-----3-----3---------------------------------------------------|


Verse  Choppy Downstrokes
      G        C        G        C        D       G          C
e|-3-3-3-3--3-3-3-3--3-3-3-3--3-3-3-3--5-5-5-5-3-3-3-3-3-3-3-3-3-3-3-3------|
B|-3-3-3-3--5-5-5-5--3-3-3-3--5-5-5-5--7-7-7-7-3-3-3-3-5-5-5-5-5-5-5-5------|
G|-4-4-4-4--5-5-5-5--4-4-4-4--5-5-5-5--7-7-7-7-4-4-4-4-5-5-5-5-5-5-5-5--X2--|
D|-5-5-5-5--5-5-5-5--5-5-5-5--5-5-5-5--7-7-7-7-5-5-5-5-5-5-5-5-5-5-5-5------|
A|-5-5-5-5-----------5-5-5-5-------------------5-5-5-5----------------------|
E|--------------------------------------------------------------------------|

Chorus
    C G   C G   C G   C G
e|--3-3---3-3---3-3---3-3---------------------------------------------------|
B|--5-3---5-3---5-3---5-3---------------------------------------------------|
G|--5-4---5-4---5-4---5-4---------------------------------------------------|
D|--5-5---5-5---5-5---5-5---------------------------------------------------|
A|--3-5---3-5---3-5---3-5---------------------------------------------------|
E|----3-----3-----3-----3---------------------------------------------------|

Bridge
e|----3------------3--------------------------------------------------------|
B|------5------------3------------------------------------------------------|
G|---5----5------4-----4----------------------------------------------------|
D|-------------5------------------------------------------------------------|
A|-3------------------------------------------------------------------------|
E|-----------3--------------------------------------------------------------|

**End on G 

Those are all the parts to the song, the order is pretty obvious, so I wont confuse you.
Three Shouts Out Loud to Jon who inspired me to do this song. =)

Questions, comments, compliments, or corrections send to Happyquakiduck@msn.com
Matty C <3


| /  slide up
| \  slide down
| h  hammer-on
| p  pull-off
| ~  vibrato
| +  harmonic
| x  Mute note
============================================================================
Suggest correction
What's this?
You can suggest a correction to this tab. Community and Mods will review your correction and vote to approve or reject it.
comments
We did not receive enough feedback on this tab! Please rate:
print report bad tab
1 2 3 4 5
guest
You may want to rate the tab now too:
select rating
Please do not post tabs as comments. Select "correction" instead!