Oops, an error
Loading. Please wait.

Play The Game Bass Tab

478 views 1 this week
no commentswrite comment
1 2 3 4 5
please rate
add to favorites
launch autoscroll
font size
0
reset
guitar tuner
Autoscroll
slow
fast
+/-
esc
set tempo
stop
Help us to improve Ultimate-Guitar.com Take our survey!
×
Difficulty
novice
Intro (0.04 - 0.21)

G|--------------------|
D|--------------------|
A|-7---7-7------------|    x4
E|----------7-7-997---|

Verse Pt.1  (0.21 - 0.38)

G|--------------------|
D|--------------------|
A|-7---7-7------------|    x4
E|----------7-7-997---|

Verse Pt.2 (0.38 - 0.54)

G|--------------------|
D|--------------------|
A|--------------------|    x4
E|-5---5-5--7-7-997---|

Chorus (0.54 - 1.10)

G|--------------------|
D|--------------------|
A|-7777777-00000000---|    x4
E|--------7-----------|

Verse Pt.1 (1.11 - 1.27)  x4
Verse Pt.2 (1.28 - 1.43)  x4
Chorus     (1.44 - 2.01)  x4
Verse Pt.1 (2.01 - 2.08)  x2
Verse Pt.2 (2.09 - 2.17)  x2
Verse Pt.1 (2.18 - 2.25)  x2
Verse Pt.2 (2.26 - 2.33)  x2

Instrumental Pt.1 (2.34 - 2.50)

G|--------------------|
D|--------------------|
A|-77777777-----------|    x8
E|--------------------|

Instrumental Pt.2 (2.51 - 3.06)

G|--------------------|
D|-----9/-------------|
A|-7777----00000000---|    x4
E|--------------------|

Chorus/Outro ( 3.07 - until the end)
Suggest correction
What's this?
You can suggest a correction to this tab. Community and Mods will review your correction and vote to approve or reject it.
comments
We did not receive enough feedback on this tab! Please rate:
print report bad tab
1 2 3 4 5
guest
You may want to rate the tab now too:
select rating
Please do not post tabs as comments. Select "correction" instead!