Oops, an error
Loading. Please wait.

Show Me Something New Tab

771 views 3 this week
no commentswrite comment
1 2 3 4 5
please rate
add to favorites
launch autoscroll
font size
0
reset
how to read this tab
guitar tuner
Autoscroll
slow
fast
+/-
esc
set tempo
stop
Help us to improve Ultimate-Guitar.com Take our survey!
×
Author
Difficulty
novice
----------------------------------------------------------------------------
                Show Me Something New - Shout Out Louds
----------------------------------------------------------------------------
Tabbed by: adslam3

From the "Work" album.


Guitar 1 - Intro
e|---------------------------------|---------------------------------|
B|---------Play this twice---------|----------Play this twice--------|
G|---------------------------------|---------------------------------|
D|---------------------------------|---------------------------------|
A|-----9-------9-------9-------9---|-----9-------9-------9-------9---|
E|-7-7---7-7-7---7-0-0---0-0-0---0-|-9-9---9-9-9---9-0-0---0-0-0---0-|

Guitar 2 - Intro                    *Notes in ( ) are optional*
e|-7-----7-----7---7---------------|(0)---(0)---(0)--7---------------|
B|-7-----7-----7---7--play---------|(0)---(0)---(0)--7--play---------|
G|-8-----8-----8---8---this--------|-8-----8-----8---8----this-------|
D|-9-----9-----9---9-----twice-----|-9-----9-----9---9------twice----|
A|-9-----9-----9---9---------------|-9-----9-----9---9---------------|
E|-7-----7-----7---0---------------|-9-----9-----9---0---------------|

Piano Riff - Notes in ( ) are optional and just to show the full chord.
**This is essentially the chords of G#m7, F#, B then reverse it**
e|-11-11-11-11--9--9--9---7-7-7-7-|-7-7-7-7--9--9--9---11-11-11-11---|
B|-12-12-12-12--11-11-11--7-7-7-7-|-7-7-7-7--11-11-11--12-12-12-12---|
G|-11-11-11-11--11-11-11--8-8-8-8-|-8-8-8-8--11-11-11--11-11-11-11---|
D|-13-13-13-13--11-11-11--9-9-9-9-|-9-9-9-9--11-11-11--13-13-13-13---|
A|(11)---------(9)-------(9)------|----------------------------------|
E|-----play this twice---(7)------|----Play this twice---------------|

VERSE
Guitar 1
e|---------------------------------|---------------------------------|
B|---------Play this twice---------|----------Play this twice--------|
G|---------------------------------|---------------------------------|
D|---------------------------------|---------------------------------|
A|-----9-------9-------9-------9---|-----9-------9-------9-------9---|
E|-7-7---7-7-7---7-0-0---0-0-0---0-|-9-9---9-9-9---9-0-0---0-0-0---0-|

Guitar 2
e|---------------------------------|---------------------------------|
B|-----Play this twice-------------|---------Play this twice---------|
G|---------------------------------|---------------------------------|
D|-9-9-9-9-9-9-9-9-9-9-9-9-9-9-9-9-|-9-9-9-9-9-9-9-9-9-9-9-9-9-9-9-9-|
A|-9-9-9-9-9-9-9-9-9-9-9-9-9-9-9-9-|-9-9-9-9-9-9-9-9-9-9-9-9-9-9-9-9-|
E|-7-7-7-7-7-7-7-7-0-0-0-0-0-0-0-0-|-9-9-9-9-9-9-9-9-0-0-0-0-0-0-0-0-|

REPEAT INTRO, then REPEAT VERSE
Guitar 2 (possibly a 3rd guitar) on second half of verses
e|-----------------------------------------------------------------------|
B|-----------------------------------------------------------------------|
G|------8---------8---------8--------8---------8---------8----------8----|
D|---9---9-9---9---9-9---9---9-9---9--9-9---9---9-9---9---9-9----9---9-9-|
A|--9-9---9---9-9---9---9-9---9---9-9--9---9-9---9---9-9---9----9-9---9--|
E|-7---------7---------0---------0--------9---------9----------0---------|

E|-----------|  I'm not 100% sure about this section, but it sounds
B|-----------|  nice if you have a few guitars playing.
G|------8----|
D|---9---9-9-|  This whole section starts at about 1:00 and various
A|--9-9---9--|  other times during the song.
E|-0---------|

Then REPEAT INTRO

CHORUS ("Radio daylight, radio darkness...)
e|-------------------------------------------------|
B|-------------Repeat this as necessary------------|
G|-------------------------------------------------|
D|-9~----9~----9~----9~----9~----9~----9~----9~----|
A|-9~----9~----9~----9~----9~----9~----9~----9~----|
E|-7~----0~----7~----0~----9~----0~----9~----0~----|

The rest of the song just basically repeats.
End on: e|----|
        B|----|
        G|----|
        D|-9~-|
        A|-9~-|
        E|-7~-|

ENJOY! Any questions or comments, just message me or leave a comment here.
Suggest correction
What's this?
You can suggest a correction to this tab. Community and Mods will review your correction and vote to approve or reject it.
comments
We did not receive enough feedback on this tab! Please rate:
print report bad tab
1 2 3 4 5
guest
You may want to rate the tab now too:
select rating
Please do not post tabs as comments. Select "correction" instead!