Oops, an error
Loading. Please wait.

Shut Your Eyes Tab

3,343 views 3 this week
no commentswrite comment
1 2 3 4 5
excellent!
x 5
add to favorites
launch autoscroll
font size
0
reset
how to read this tab
guitar tuner
Autoscroll
slow
fast
+/-
esc
set tempo
stop
Help us to improve Ultimate-Guitar.com Take our survey!
×
Author
-----------------------------------------------------------------------------
                             Shut Your Eyes - Shout Out Louds
-----------------------------------------------------------------------------
Tabbed by: Matty C
Email: Happyquakiduck@msn.com

Tuning: Standard EADGBE

*****GUITAR 1*****

Drums give a four beat then

Intro/Verse/Bridge  
e|--------------------1111111111111111------------------------------------|
B|-5555555555555555---1111111111111111------------------------------------|
G|-5555555555555555---2222222222222222------------------------------------|
D|-5555555555555555---3333333333333333------------------------------------|
A|-3333333333333333---3333333333333333------------------------------------|
E|--------------------1111111111111111------------------------------------|


Chorus
e|--------------------1111111---------------------------------------------|
B|-7777777777777777---1111111---5555555-------7~--------------------------|
G|-7777777777777777---2222222---5555555-------7~--------------------------|
D|-7777777777777777---3333333---5555555--x2---7~--------------------------|
A|-5555555555555555---3333333---3333333-------5~--------------------------|
E|--------------------1111111---------------------------------------------|


End on
e|------------------------------------------------------------------------|
B|-7----------------------------------------------------------------------|
G|-7----------------------------------------------------------------------|
D|-7----------------------------------------------------------------------|
A|-5----------------------------------------------------------------------|
E|------------------------------------------------------------------------|




*****GUITAR 2*****
Intro/Break - Silent for two measures then:
e|------------------------------------------------------------------------|
B|--------------8---------------------------------------------------------|
G|-99-7-799-7-9-------or---------------------------12---------------------|
D|-------------------------14-14-12-12-14-14-12-14------------------------|
A|------------------------------------------------------------------------|
E|------------------------------------------------------------------------|


Verse - Silent, come in on "Cry Cry Cry", "Swear You'll Never", and "Shout Shout Shout"
e|------------------------------------------------------------------------|
B|------------------------------------------------------------------------|
G|-9-9-9~---9-9-9~--------------------------------------------------------|
D|------------------------------------------------------------------------|
A|------------------------------------------------------------------------|
E|------------------------------------------------------------------------|


Chorus
e|------------------------------------------------------------------------|
B|--------------8---------------------------------------------------------|
G|-99-7-799-7-9---x4-9~---------------------------------------------------|
D|------------------------------------------------------------------------|
A|------------------------------------------------------------------------|
E|------------------------------------------------------------------------|

Bridge - Synth transcribed for guitar
e|------------------------------------------------------------------------|
B|-8/13---13/17--17p15--8/13----13/17--15--18-17-13-----------------------|
G|------------------------------------------------------------------------|
D|------------------------------------------------------------------------|
A|------------------------------------------------------------------------|
E|------------------------------------------------------------------------|

e-------13---15-13--------------------------------------------------------|
B-17-15-------------17-13~----17~~~---------------------------------------|
G|------------------------------------------------------------------------|
D|------------------------------------------------------------------------|
A|------------------------------------------------------------------------|
E|------------------------------------------------------------------------|

End on
e|------------------------------------------------------------------------|
B|------------------------------------------------------------------------|
G|-9~---------------------------------------------------------------------|
D|------------------------------------------------------------------------|
A|------------------------------------------------------------------------|
E|------------------------------------------------------------------------|


Mmmmm. Gotta love the yummy synth.
Questions, comments, compliments, or corrections send to Happyquakiduck@msn.com
Matty C <3

| /  slide up
| \  slide down
| h  hammer-on
| p  pull-off
| ~  vibrato
| +  harmonic
| x  Mute note
=============================================================================
Suggest correction
comments
print report bad tab
guest
You may want to rate the tab now too:
select rating
Please do not post tabs as comments. Select "correction" instead!