Oops, an error
Loading. Please wait.

Suit Yourself Chords

273 views 1 this week
no commentswrite comment
1 2 3 4 5
please rate
add to favorites
launch autoscroll
font size
0
reset
transpose
0
reset
display chords
guitar tuner
Autoscroll
slow
fast
+/-
esc
set tempo
stop
Help us to improve Ultimate-Guitar.com Take our survey!
×
Author
----------------------------------------------------------------------------
                      Suit Yourself - Shout Out Louds
----------------------------------------------------------------------------
Tabbed by: adslam3

Tuning: Standard

See bottom of tab for strumming.

INTRO

F# - F# - B (let ring)
F# - F# - B (let ring)

F# - F#
B - C#m - F# - E
B - C#m - F# - E

B          C#m  F#
Little boy, 
B                    C#m             F#
you've got it all so why you complaining?
     B            C#m   F#
Well suit yourself. 
B                          C#m        F#
Nine months of dreaming is too much a nightmare.

B - C#m - F# - E
B - C#m - F# - E

B          C#m  F#
Mirrorball, 
B                C#m          F#
The only one who dance with me
    B             C#m   F#
And suit yourself. 
B                          C#m           F#m
Nine months is too much is too much for me, but


B        C#m        F#                  E
I had it all, but I lost it to you that day.
B             C#m            F#                     E
I should have known when the bells rang for me that day.

B - C#m - F#
B - C#m - F#
B - C#m - F#
B - C#m - F#


B           C#m   F#
Little love, 
B              C#m        F#
push me to the end of town
B                                C#m   F#
And suit yourself, just suit yourself, 
B                 C#m       F#
a little love was all I needed, but

B        C#m        F#                  E
I had it all, but I lost it to you that day.
B             C#m            F#                     E
I should have known when the bells rang for me that day.

B - C#m - F# - E (Repeat until end)
End on B


INTRO
   F#     B   F#    B  F#     B       C#m       F#       E
e|-9--9---7~--9--9---7~-9--9--|7--------4--------2--------0------|
B|-11-11--7~--11-11--7~-11-11-|7--------5--------2--------0------|
G|-11-11--8~--11-11--8~-11-11-|8--------6--------3--------1------|
D|-11-11--9~--11-11--9~-11-11-|9-x8-----6-x8-----4-x8-----2-x8---|
A|-9--9---9~--9--9---9~-9--9--|9--------4--------4--------2------|
E|--------7~---------7~-------|7-----------------2--------0------|
                             ^^This whole section played twice^^

VERSE
   B     C#m            F#
e|-7-----9--9--9--9-----9--9--|
B|-7-----9--9--9--9-----11-11-|
G|-8-----9--9--9--9-----11-11-|
D|-9-x8--11-11-11-11----11-11-|
A|-9-----11-11-11-11----9--9--|
E|-7-----9--9--9--9-----------|

Suggest correction
Give kudos to tab author, rate the tab!
1 2 3 4 5
comments
print report bad tab
guest
You may want to rate the tab now too:
select rating
Wanna post a correction for this tab? Suggest correction