Oops, an error
Loading. Please wait.

Very Loud Tab

2,596 views 3 this week
no commentswrite comment
1 2 3 4 5
please rate
add to favorites
launch autoscroll
font size
0
reset
how to read this tab
guitar tuner
Tab Pro tools
  • play this tab
  • loop segment
  • change instrument
  • show fretboard
  • metronome
×
Best way to learn
"Very Loud"
Autoscroll
slow
fast
+/-
esc
set tempo
stop
Contributor
Shout Out Louds - Very Loud
CD: Howl Howl Gaff Gaff

Notes: I pretty much wore my fingers out tabbing this song. I hope it's right.

GUIDE:

>> = slide
)) = let ring

INTRO:

e-------------|
b-----7-------|
g-------7-----|
d---7-----7---| x8 he starts singing about halfway through the
a-5-----------|    seventh time
e-------------|

VERSE:

e-------------|
b-----7-------|
g-------7-----|
d---7-----7---| not sure how many times
a-5-----------|
e-------------|

CHORUS:

GUITAR 1

  Little by.. You're gonna....
e-------------------------|
b-------------------------|
g-77777777777-44444444444-|
d-77777777777-44444444444-| only plays this during the little by little,
a-55555555555-22222222222-| you're gonna part
e-------------------------|

GUITAR 2
  Little by...              You're gonna...
e-------------------------------------------|
b-------------------------------------------|
g-191919191919->>12121212->>9999->>777->>19-|
d-191919191919->>12121212->>9999->>777->>19-| then repeat x4
a-171717171717->>10101010->>7777->>555->>17-|
e-------------------------------------------|

Outro Of Chorus

e------------|
b------------|
g-44-22-7----|))
d-44-22-7----|))
a-22-00-5----|))
e------------|


VERSE:

e-------------|
b-----7-------|
g-------7-----|
d---7-----7---|
a-5-----------|
e-------------|

CHORUS:

GUITAR 1

  Little by.. You're gonna....
e-------------------------|
b-------------------------|
g-77777777777-44444444444-|
d-77777777777-44444444444-|
a-55555555555-22222222222-|
e-------------------------|

GUITAR 2
  Little by...              You're gonna...
e-------------------------------------------|
b-------------------------------------------|
g-191919191919->>12121212->>9999->>777->>19-|
d-191919191919->>12121212->>9999->>777->>19-|
a-171717171717->>10101010->>7777->>555->>17-|
e-------------------------------------------|

Outro Of Chorus

e-------|
b-------|
g-44-22-|  go straight into the verse without playing the 577 chord
d-44-22-|
a-22-00-|
e-------|

INTRO TO VERSE:

e-------------|
b-----7-------|
g-------7-----|
d---7-----7---| x8 he starts singing halfway through the seventh time
a-5-----------|
e-------------|

e-----
b-7))-
g-7))- he plays this right after "I've got a"
d-7))-
a-----
e-----

VERSE:

The bass plays alone for a while until he says "See I always" at which time he plays this little riff

e-----------|
b-----------|
g-14-12-11--| x2
d-----------|
a-----------|
e-----------|

CHORUS:

GUITAR 1

  Little by.. You're gonna....
e-------------------------|
b-------------------------|
g-77777777777-44444444444-|
d-77777777777-44444444444-|
a-55555555555-22222222222-|
e-------------------------|

GUITAR 2
  Little by...              You're gonna...
e-------------------------------------------|
b-------------------------------------------|
g-191919191919->>12121212->>9999->>777->>19-|  about 16 times
d-191919191919->>12121212->>9999->>777->>19-|
a-171717171717->>10101010->>7777->>555->>17-|
e-------------------------------------------|

AND THAT'S THE END

Brad


If you have any corrections email me at
Mageball24@kc.rr.com
comments
We did not receive enough feedback on this tab! Please rate:
print report bad tab
1 2 3 4 5
I want to post or [tab]
guest
You may want to rate the tab now too:
select rating
Please do not post tabs as comments. Select "correction" instead!