Oops, an error
Loading. Please wait.

Wish I Was Dead Part 2 Tab

429 views 1 this week
no commentswrite comment
1 2 3 4 5
please rate
add to favorites
launch autoscroll
font size
0
reset
how to read this tab
guitar tuner
Autoscroll
slow
fast
+/-
esc
set tempo
stop
Help us to improve Ultimate-Guitar.com Take our survey!
×
Author
Difficulty
novice
Shout Out Louds - Wish I Was Dead


a very good song by a very good band.

Tuning: EADGBE (standard)

Intro

-----------------------------------------|
-----------------------------------------|
-----------------------------------------|
-----------------------------------------|
-9-9-11-11-9-9-11-11-9-9-11-11-9-9-11-11-|
-0-0-0--0--0-0-0--0--0-0-0--0--0-0-0--0--|

---------------------------------|
---------------------------------|
---------------------------------|
---------------------------------|
-7-7-7-7-7-7-7-7-7-7-7-7-7-7-7-7-|
-5-5-5-5-5-5-5-5-5-5-5-5-5-5-5-5-|
played twice before they start singing


"I want to hear drums          and my"
-----------------------------------------|
-----------------------------------------|
-----------------------------------------|
-----------------------------------------|
-9-9-11-11-9-9-11-11-9-9-11-11-9-9-11-11-|
-0-0-0--0--0-0-0--0--0-0-0--0--0-0-0--0--|


hearts a drum
---------------------------------|
---------------------------------|
---------------------------------|
---------------------------------|
-7-7-7-7-7-7-7-7-7-7-7-7-7-7-7-7-|
-5-5-5-5-5-5-5-5-5-5-5-5-5-5-5-5-|


Chorus: 




                  "and i try to
-0-0-0-0-0-0-0-0-0-0-0-0-0-0-0-0-|
-0-0-0-0-0-0-0-0-0-0-0-0-0-0-0-0-|
-8-8-8-8-8-8-8-8-8-8-8-8-8-8-8-8-|
-9-9-9-9-9-9-9-9-9-9-9-9-9-9-9-9-|
-9-9-9-9-9-9-9-9-9-9-9-9-9-9-9-9-|
-7-7-7-7-7-7-7-7-7-7-7-7-7-7-7-7-|



try to lose my
-----------------|
-----------------|
-----------------|
-6-6-6-6-6-6-6-6-|
-6-6-6-6-6-6-6-6-|
-4-4-4-4-4-4-4-4-|

head"

-0-0-0-0-0-0-0-0-|
-0-0-0-0-0-0-0-0-|
-6-6-6-6-6-6-6-6-|
-7-7-7-7-7-7-7-7-|
-7-7-7-7-7-7-7-7-|
-5-5-5-5-5-5-5-5-|


those are the only guitar parts. listen to the song to figure the rest out.
Suggest correction
Give kudos to tab author, rate the tab!
1 2 3 4 5
comments
print report bad tab
guest
You may want to rate the tab now too:
select rating
Please do not post tabs as comments. Select "correction" instead!