Oops, an error
Loading. Please wait.

A Night At Daddy Gees Bass Tab

7 views 1 this week
no commentswrite comment
1 2 3 4 5
2 more votes to show rating
add to favorites
launch autoscroll
font size
0
reset
guitar tuner
Autoscroll
slow
fast
+/-
esc
set tempo
stop
Help us to improve Ultimate-Guitar.com Take our survey!
×
Author
Difficulty
novice
--------------------------------------------------------------------------
                            Artist - Showaddywaddy
                          *************************
                        Song - A Night At Daddy Gee's
                       *******************************
                            Tabbed By - Ayreon77
                           **********************
--------------------------------------------------------------------------
Tuning = Standard             


VERSE 1
********
G|---------------|---------------|---------------|---------------|
D|---------------|---------------|---------------|---------------|
A|-5-----5-------|-5-----5-------|-5-----5-------|-5-----5-------|
E|---7-5---7-5-7-|---7-5---7-5-7-|---7-5---7-5-7-|---7-5---7-5-7-|


G|---------------|---------------|---------------|---------------|
D|-5-----5-------|-5-----5-------|---------------|---------------|
A|---7-5---7-5-7-|---7-5---7-5-7-|-5-----5-------|-5-----5-------|
E|---------------|---------------|---7-5---7-5-7-|---7-5---7-5-7-|

00:19
G|------|------|---------------|---------------|
D|------|------|---------------|---------------|
A|------|------|-5-----5-------|---------------|
E|-5--5-|-4--4-|---7-5---7-5-7-|-5-5-5-5-5-5-5-|


-------------------------
00:26
VERSE 2
********
G|---------------|---------------|---------------|---------------|
D|---------------|---------------|---------------|---------------|
A|-5-----5-------|-5-----5-------|-5-----5-------|-5-----5-------|
E|---7-5---7-5-7-|---7-5---7-5-7-|---7-5---7-5-7-|---7-5---7-5-7-|


G|---------------|---------------|---------------|---------------|
D|-5-----5-------|-5-----5-------|---------------|---------------|
A|---7-5---7-5-7-|---7-5---7-5-7-|-5-----5-------|-5-----5-------|
E|---------------|---------------|---7-5---7-5-7-|---7-5---7-5-7-|

00:40
G|------|------|---------------|
D|------|------|---------------|
A|------|------|-5-----5-------|
E|-5--5-|-4--4-|---7-5---7-5-7-|


-------------------------
00:45
BRIDGE
*******
G|---------------|------------------|---------------|-------------|
D|-----------4-4-|-5-5--------------|-----------4-4-|-5-5---------|
A|-5-5--7-7------|------5-5--7-7--5-|-5-5--7-7------|------5-5--7-|
E|---------------|------------------|---------------|-------------|

01:00
G|------------------|------------------|------------------|
D|------------------|------------------|------------------|
A|------------------|------------------|------------------|
E|-8-7-6-5--0-2-3-5-|-8-7-6-5--0-2-3-5-|-8-7-6-5--0-2-3-5-|


-------------------------
01:06
VERSE 3
G|---------------|---------------|---------------|---------------|
D|---------------|---------------|---------------|---------------|
A|-5-----5-------|-5-----5-------|-5-----5-------|-5-----5-------|
E|---7-5---7-5-7-|---7-5---7-5-7-|---7-5---7-5-7-|---7-5---7-5-7-|


G|---------------|---------------|---------------|---------------|
D|-5-----5-------|-5-----5-------|---------------|---------------|
A|---7-5---7-5-7-|---7-5---7-5-7-|-5-----5-------|-5-----5-------|
E|---------------|---------------|---7-5---7-5-7-|---7-5---7-5-7-|


G|------|------|---------------|----------------|
D|------|------|---------------|----------------|
A|------|------|-5-----5-------|-5-----5--5-7-5-|
E|-5--5-|-4--4-|---7-5---7-5-7-|---7-5----------|


-------------------------
01:28
SAX
****
G|---------------|---------------|---------------|---------------|
D|-5-----5-------|-5-----5-------|---------------|---------------|
A|---7-5---7-5-7-|---7-5---7-5-7-|-5-----5-------|-5-----5-------|
E|---------------|---------------|---7-5---7-5-7-|---7-5---7-5-7-|


G|---------------|---------|------|------|
D|---------------|---------|------|------|
A|-7-----7-------|-7-----7-|------|------|
E|---9-7---9-7-9-|---9-7---|-5--5-|-5--5-|


-------------------------
01:41
VERSE 4
********
G|---------------|---------------|---------------|---------------|
D|---------------|---------------|---------------|---------------|
A|-5-----5-------|-5-----5-------|-5-----5-------|-5-----5-------|
E|---7-5---7-5-7-|---7-5---7-5-7-|---7-5---7-5-7-|---7-5---7-5-7-|


G|---------------|---------------|---------------|---------------|
D|-5-----5-------|-5-----5-------|---------------|---------------|
A|---7-5---7-5-7-|---7-5---7-5-7-|-5-----5-------|-5-----5-------|
E|---------------|---------------|---7-5---7-5-7-|---7-5---7-5-7-|

01:56
G|------|------|---------------|---------------|
D|------|------|---------------|---------------|
A|------|------|-5-----5-------|-5-----5-------|
E|-5--5-|-4--4-|---7-5---7-5-7-|---7-5---7-5-7-|

02:03
G|------|------|---------------|---------------|
D|------|------|---------------|---------------|
A|------|------|-5-----5-------|-5-----5-------|
E|-5--5-|-4--4-|---7-5---7-5-7-|---7-5---7-5-7-|


-------------------------
02:09
SAX
****
G|---------------|---------------|---------------|---------------|
D|---------------|---------------|---------------|---------------|
A|-5-----5-------|-5-----5-------|-5-----5-------|-5-----5-------|
E|---7-5---7-5-7-|---7-5---7-5-7-|---7-5---7-5-7-|---7-5---7-5-7-|


G|---------------|---------------|---------------|---------------|
D|-5-----5-------|-5-----5-------|---------------|---------------|
A|---7-5---7-5-7-|---7-5---7-5-7-|-5-----5-------|-5-----5-------|
E|---------------|---------------|---7-5---7-5-7-|---7-5---7-5-7-|


G|------------------|------------------|---------------|---------------|
D|-8------8---------|-8------8---------|-5-----5-------|-5-----5-------|
A|---10-8---10-8-10-|---10-8---10-8-10-|---7-5---7-5-7-|---7-5---7-5-7-|
E|------------------|------------------|---------------|---------------|



ENJOY.............
Suggest correction
Give kudos to tab author, rate the tab!
1 2 3 4 5
comments
print report bad tab
guest
You may want to rate the tab now too:
select rating
Wanna post a correction for this tab? Suggest correction