Oops, an error
Loading. Please wait.

Bony Moronie Bass Tab

37 views 3 this week
no commentswrite comment
1 2 3 4 5
2 more votes to show rating
add to favorites
launch autoscroll
font size
0
reset
guitar tuner
Autoscroll
slow
fast
+/-
esc
set tempo
stop
Help us to improve Ultimate-Guitar.com Take our survey!
×
Author
Difficulty
novice
--------------------------------------------------------------------------
                            Artist - Showaddywaddy
                           ************************
                            Song - Bony Moronie
                           *********************
                            Tabbed By - Ayreon77
                           **********************
--------------------------------------------------------------------------
Tuning = Standard             



INTRO
******
G|---------|---------|--------------------------|
D|---4-7---|---2-5---|-----0-2--5-5-3-2-0-0-2-0-|
A|-5-----5-|-3-----3-|---2----------------------|
E|---------|---------|-3------------------------|


-------------------------
00:12
VERSE 1
********
G|------------------|--------------------------|------------------|--------------------------|
D|-----0-2------0-2-|-----0-2--5-5-3-2-0-0-2-0-|-----0-2------0-2-|-----0-2--5-5-3-2-0-0-2-0-|
A|---2--------2-----|---2----------------------|---2--------2-----|---2----------------------|
E|-3--------3-------|-3------------------------|-3--------3-------|-3------------------------|


G|----------------------------|-------0-2--5-5-3-2-0-0-2-0-|
D|-----2------2------2------2-|--s--2----------------------|
A|-3-3----3-3----3-3----3-3---|-1\3------------------------|
E|----------------------------|----------------------------|


G|----------------------------|--------------------------|
D|----------------------------|-----0-2--5-5-3-2-0-0-2-0-|
A|-----2------2------2------2-|---2----------------------|
E|-3-3----3-3----3-3----3-3---|-3------------------------|


-------------------------
00:31
CHORUS
*******
G|------|------|------|------|-----------|-----------|--------------------------|
D|------|------|------|------|-----0-0---|-----0-0---|-----0-2--5-5-3-2-0-0-2-0-|
A|-5--5-|-3--3-|-5--5-|-3--3-|---2-----2-|---2-----2-|---2----------------------|
E|------|------|------|------|-3---------|-3---------|-3------------------------|


-------------------------
00:41
VERSE 2
********
G|------------------|--------------------------|------------------|--------------------------|
D|-----0-2------0-2-|-----0-2--5-5-3-2-0-0-2-0-|-----0-2------0-2-|-----0-2--5-5-3-2-0-0-2-0-|
A|---2--------2-----|---2----------------------|---2--------2-----|---2----------------------|
E|-3--------3-------|-3------------------------|-3--------3-------|-3------------------------|


G|----------------------------|-------0-2--5-5-3-2-0-0-2-0-|
D|-----2------2------2------2-|--s--2----------------------|
A|-3-3----3-3----3-3----3-3---|-1\3------------------------|
E|----------------------------|----------------------------|


G|----------------------------|--------------------------|
D|----------------------------|-----0-2--5-5-3-2-0-0-2-0-|
A|-----2------2------2------2-|---2----------------------|
E|-3-3----3-3----3-3----3-3---|-3------------------------|


-------------------------
01:00
CHORUS
*******
G|------|------|------|------|-----------|-----------|--------------------------|
D|------|------|------|------|-----0-0---|-----0-0---|-----0-2--5-5-3-2-0-0-2-0-|
A|-5--5-|-3--3-|-5--5-|-3--3-|---2-----2-|---2-----2-|---2----------------------|
E|------|------|------|------|-3---------|-3---------|-3------------------------|


-------------------------
01:10
SOLO
*****
G|-----0---|-------0---|-------------------|
D|---2-----|-----2-----|----5-3-2-0--------|
A|-3-----3-|-0-3-----3-|-3----------3--3---|
E|---------|-----------|-----------------3-|


G|-----0---|-------0-------------|----6-7-8-------|
D|---2-----|-----2---------------|----------------|
A|-3-----3-|-0-3-----------2-3-5-|-5--------5-3---|
E|---------|---------0-3-5-------|--------------5-|


-------------------------
01:20
VERSE 3
********
G|------------------|--------------------------|------------------|--------------------------|
D|-----0-2------0-2-|-----0-2--5-5-3-2-0-0-2-0-|-----0-2------0-2-|-----0-2--5-5-3-2-0-0-2-0-|
A|---2--------2-----|---2----------------------|---2--------2-----|---2----------------------|
E|-3--------3-------|-3------------------------|-3--------3-------|-3------------------------|


G|-----0-2-|-----0-2-|-----0-2--5-5-3-2-0-0-2-0-|------------------|--------------------------|
D|---2-----|---2-----|---2----------------------|-----0-2------0-2-|-----0-2--5-5-3-2-0-0-2-0-|
A|-3-------|-3-------|-3------------------------|---2--------2-----|---2----------------------|
E|---------|---------|--------------------------|-3--------3-------|-3------------------------|


-------------------------
01:40
CHORUS
*******
G|------|------|------|------|-----------|-----------|--------------------------|
D|------|------|------|------|-----0-0---|-----0-0---|-----0-2--5-5-3-2-0-0-2-0-|
A|-5--5-|-3--3-|-5--5-|-3--3-|---2-----2-|---2-----2-|---2----------------------|
E|------|------|------|------|-3---------|-3---------|-3------------------------|


-------------------------
01:49
NA NA NA NA NA
G|-------|-------|-------|-------|--------------------------|
D|-----0-|-----0-|-----0-|-----0-|-----0-2--5-5-3-2-0-0-2-0-|
A|---2---|---2---|---2---|---2---|---2----------------------|
E|-3-----|-3-----|-3-----|-3-----|-3------------------------|X2


G|-----0-|-----0-|-----0-|-----0-|-----0-5--5-5-3-2-0-0-2-0-|
D|---2---|---2---|---2---|---2---|---2----------------------|
A|-3-----|-3-----|-3-----|-3-----|-3------------------------|
E|-------|-------|-------|-------|--------------------------|


G|-------|-------|-------|-------|--------------------------|
D|-----0-|-----0-|-----0-|-----0-|-----0-2--5-5-3-2-0-0-2-0-|
A|---2---|---2---|---2---|---2---|---2----------------------|
E|-3-----|-3-----|-3-----|-3-----|-3------------------------|


-------------------------
02:09
CHORUS
*******
G|------|------|------|------|---------|---------|--------------------------|
D|------|------|------|------|-----0---|-----0---|-----0-2--5-5-3-2-0-0-2-0-|
A|-5--5-|-3--3-|-5--5-|-3--3-|---2---2-|---2---2-|---2----------------------|
E|------|------|------|------|-3-------|-3-------|-3------------------------|


-------------------------
02:19
OUTRO
******
G|-----0-2-|-5-5-3-2-0-|-------4-|-8-8-6-5-----|---8-5---8--------|
D|---2-----|-----------|---4-7---|---------7---|-6-----6-----6--6-|
A|-3-------|-----------|-5-------|-----------5-|-----------5------|
E|---------|-----------|---------|-------------|------------------|



ENJOY...........
Suggest correction
Give kudos to tab author, rate the tab!
1 2 3 4 5
comments
print report bad tab
guest
You may want to rate the tab now too:
select rating
Wanna post a correction for this tab? Suggest correction