Oops, an error
Loading. Please wait.

Chain Gang Bass Tab

16 views 3 this week
no commentswrite comment
1 2 3 4 5
2 more votes to show rating
add to favorites
launch autoscroll
font size
0
reset
guitar tuner
Autoscroll
slow
fast
+/-
esc
set tempo
stop
Help us to improve Ultimate-Guitar.com Take our survey!
×
Author
Difficulty
novice
--------------------------------------------------------------------------
                            Artist - Showaddywaddy
                           ************************
                             Song - Chain Gang
                            *******************
                            Tabbed By - Ayreon77
                           **********************
--------------------------------------------------------------------------
Tuning = Standard             


00:15
VERSE 1
********
G|---------------------|-------------|------------|------------|
D|---s-5--5---5-4------|-------------|------------|-----4-5--5-|
A|-10\------5-----7--7-|---7-5--3--3-|---3-4-5--5-|-5-7--------|
E|---------------------|-5-----------|-5----------|------------|


G|------------|-------------|------------|------------|
D|---5-4------|-------------|------------|-----4-5--5-|
A|-5-----7--7-|---7-5--3--3-|---3-4-5--5-|-5-7--------|
E|------------|-5-----------|-5----------|------------|


----------------------------
00:31
CHORUS
*******
G|------------|------------|------------|------------|
D|---5--------|-------5--5-|---5-4------|-------5--5-|
A|-5---5-3--3-|---3--------|-5-----7--7-|-5-7-5------|
E|------------|-3---3------|------------|------------|


G|------------|------------|------------|------------|
D|---5--------|------------|-----4-5--5-|-----4-5--5-|
A|-5---5-3--3-|---3---5--5-|-5-7--------|-5-7--------|
E|------------|-3---3------|------------|------------|


----------------------------
00:46
VERSE 2
********
G|------------|-------------|------------|------------|
D|---5-4------|-------------|------------|-----4-5--5-|
A|-5-----7--7-|---7-5--3--3-|---3-4-5--5-|-5-7--------|
E|------------|-5-----------|-5----------|------------|X3


----------------------------
01:07
CHORUS
*******
G|------------|------------|------------|------------|
D|---5--------|-------5--5-|---5-4------|-------5--5-|
A|-5---5-3--3-|---3--------|-5-----7--7-|-5-7-5------|
E|------------|-3---3------|------------|------------|


G|------------|------------|------------|------------|
D|---5--------|------------|-----4-5--5-|-----4-5--5-|
A|-5---5-3--3-|---3---5--5-|-5-7--------|-5-7--------|
E|------------|-3---3------|------------|------------|


----------------------------
01:22
BRIDGE
*******
G|------------|-------------|------------|------------|
D|---5-4------|-------------|------------|-----4-5--5-|
A|-5-----7--7-|---7-5--3--3-|---3-4-5--5-|-5-7--------|
E|------------|-5-----------|-5----------|------------|X2


----------------------------
01:37
CHORUS
*******
G|------------|------------|------------|------------|
D|---5--------|-------5--5-|---5-4------|-------5--5-|
A|-5---5-3--3-|---3--------|-5-----7--7-|-5-7-5------|
E|------------|-3---3------|------------|------------|


G|------------|------------|------------|------------|
D|---5--------|------------|-----4-5--5-|-----4-5--5-|
A|-5---5-3--3-|---3---5--5-|-5-7--------|-5-7--------|
E|------------|-3---3------|------------|------------|


----------------------------
01:52
BRIDGE
*******
G|------------|-------------|------------|------------|
D|---5-4------|-------------|------------|-----4-5--5-|
A|-5-----7--7-|---7-5--3--3-|---3-4-5--5-|-5-7--------|
E|------------|-5-----------|-5----------|------------|X2


----------------------------
OUTRO
******
G|-------------------------------|
D|-------------------------------|
A|---------------------------s---|
E|-3-3-3-3-3-3-3-3-3-3-3-3-3-\15-|



ENJOY..........
Suggest correction
Give kudos to tab author, rate the tab!
1 2 3 4 5
comments
print report bad tab
guest
You may want to rate the tab now too:
select rating
Wanna post a correction for this tab? Suggest correction