Oops, an error
Loading. Please wait.

Cmon Everybody Bass Tab

13 views 1 this week
no commentswrite comment
1 2 3 4 5
3 more votes to show rating
add to favorites
launch autoscroll
font size
0
reset
guitar tuner
Autoscroll
slow
fast
+/-
esc
set tempo
stop
Help us to improve Ultimate-Guitar.com Take our survey!
×
Author
Difficulty
novice
--------------------------------------------------------------------------
                            Artist - Showaddywaddy
                          *************************
                           Song - C'mon Everybody
                          ************************
                            Tabbed By - Ayreon77
                           **********************
--------------------------------------------------------------------------
Tuning = Standard             


INTRO
******                                 Drums
G|------------------------------------|------------------------------------|
D|--h--------h--------h--------h------|--h--------h--------h--------h------|
A|-6-7-7-7--6-7-7-7--6-7-7-7--6-7-7-7-|-6-7-7-7--6-7-7-7--6-7-7-7--6-7-7-7-|
E|------------------------------------|------------------------------------|

  Guitar Comes In
G|--------------|--h-----------|----------------|
D|--h-----------|-6-7-7-7--7-7-|-9-9-9--7-7-7---|
A|-6-7-7-7--7-7-|--------------|--------------7-|
E|--------------|--------------|----------------|


G|--------------|--h-----------|----------------|-----------|
D|--h-----------|-6-7-7-7--7-7-|-9-9-9--7-7-7---|-9-11-9----|
A|-6-7-7-7--7-7-|--------------|--------------7-|--------11-|
E|--------------|--------------|----------------|-----------|


-----------------------
VERSE 1
********
00:16
G|------------------------------------|------------------------------------|
D|--h--------h--------h--------h------|--h--------h--------h--------h------|
A|-6-7-7-7--6-7-7-7--6-7-7-7--6-7-7-7-|-6-7-7-7--6-7-7-7--6-7-7-7--6-7-7-7-|
E|------------------------------------|------------------------------------|X2

00:27
G|--h--------h------|--h--------h------|--h--------h------|--h--------h------|---|
D|-6-7-7-7--6-7-7-7-|-8-9-9-9--8-9-9-9-|-6-7-7-7--6-7-7-7-|-8-9-9-9--8-9-9-9-|---|
A|------------------|------------------|------------------|------------------|-7-|
E|------------------|------------------|------------------|------------------|---|


-----------------------
00:35
BREAK
******
G|--------------|--h-----------|----------------|-----------|
D|--h-----------|-6-7-7-7--7-7-|-9-9-9--7-7-7---|-9-11-9----|
A|-6-7-7-7--7-7-|--------------|--------------7-|--------11-|
E|--------------|--------------|----------------|-----------|X2


-----------------------
00:45
VERSE 2
********
G|------------------------------------|------------------------------------|
D|--h--------h--------h--------h------|--h--------h--------h--------h------|
A|-6-7-7-7--6-7-7-7--6-7-7-7--6-7-7-7-|-6-7-7-7--6-7-7-7--6-7-7-7--6-7-7-7-|
E|------------------------------------|------------------------------------|X2

00:56
G|--h--------h------|--h--------h------|--h--------h------|--h--------h------|---|
D|-6-7-7-7--6-7-7-7-|-8-9-9-9--8-9-9-9-|-6-7-7-7--6-7-7-7-|-8-9-9-9--8-9-9-9-|---|
A|------------------|------------------|------------------|------------------|-7-|
E|------------------|------------------|------------------|------------------|---|


-----------------------
01:04
BREAK
******
G|--------------|--h-----------|----------------|-----------|
D|--h-----------|-6-7-7-7--7-7-|-9-9-9--7-7-7---|-9-11-9----|
A|-6-7-7-7--7-7-|--------------|--------------7-|--------11-|
E|--------------|--------------|----------------|-----------|X2


-----------------------
01:14
VERSE 3
********
G|------------------------------------|------------------------------------|
D|--h--------h--------h--------h------|--h--------h--------h--------h------|
A|-6-7-7-7--6-7-7-7--6-7-7-7--6-7-7-7-|-6-7-7-7--6-7-7-7--6-7-7-7--6-7-7-7-|
E|------------------------------------|------------------------------------|X2

01:25
G|--h--------h------|--h--------h------|--h--------h------|--h--------h------|---|
D|-6-7-7-7--6-7-7-7-|-8-9-9-9--8-9-9-9-|-6-7-7-7--6-7-7-7-|-8-9-9-9--8-9-9-9-|---|
A|------------------|------------------|------------------|------------------|-7-|
E|------------------|------------------|------------------|------------------|---|


-----------------------
01:33
BREAK
******                             
G|--------------|--h-----------|----------------|-----------|
D|--h-----------|-6-7-7-7--7-7-|-9-9-9--7-7-7---|-9-11-9----|
A|-6-7-7-7--7-7-|--------------|--------------7-|--------11-|
E|--------------|--------------|----------------|-----------|X6

                                                       Fade Out......................



ENJOY..............
Suggest correction
Give kudos to tab author, rate the tab!
1 2 3 4 5
comments
print report bad tab
guest
You may want to rate the tab now too:
select rating
Wanna post a correction for this tab? Suggest correction