Oops, an error
Loading. Please wait.

Dont Turn Your Back On Me Baby Bass Tab

4 views 1 this week
no commentswrite comment
1 2 3 4 5
2 more votes to show rating
add to favorites
launch autoscroll
font size
0
reset
guitar tuner
Autoscroll
slow
fast
+/-
esc
set tempo
stop
Help us to improve Ultimate-Guitar.com Take our survey!
×
Author
Difficulty
novice
--------------------------------------------------------------------------
                            Artist - Showaddywaddy
                          *************************
                     Song - Don't Turn Your Back On Me Baby
                    ****************************************
                            Tabbed By - Ayreon77
                           **********************
--------------------------------------------------------------------------
Tuning = Standard             


INTRO
******        s  s
G|---------|-9\11/-|--s--------|
D|--s------|-------|-7\9-7-----|
A|-7\------|-------|-------9-7-|
E|----5----|-------|-----------|


-----------------------------
00:16
VERSE 1
********
G|--------|--------|-----------|-----------------|--------|----------|------------|
D|--------|--------|--s-7--7-7-|-7--7-7----------|--------|----------|------------|
A|-5--5-5-|-5--5-5-|-5\--------|--------5-7--7-7-|-5--3---|----------|-4-5-7--7-7-|
E|--------|--------|-----------|-----------------|------5-|-5-7--7-7-|------------|

00:32
G|--------|--------|------------|--------|--------------|
D|--------|--------|------------|--------|--------------|
A|--------|--------|-4-5-7--7-7-|-7--7-7-|--------------|
E|-5--5-5-|-5--5-5-|------------|--------|-0-3-4-5--5-5-|

00:43
G|--------|------------|--------|--------------|
D|--------|------------|--------|--------------|
A|--------|-4-5-7--7-7-|-7--7-7-|--------------|
E|-5--5-5-|------------|--------|-0-3-4-5--5-5-|


G|--------|---------|--------|--------|--------|--------|--------------|----------|
D|--------|---------|--------|--------|--------|--------|--------------|----------|
A|--------|-0-2-4-5-|-5--5-5-|-5--5-5-|-7--7-7-|-7--7-7-|--------------|-5-7--7-7-|
E|-5--5-5-|---------|--------|--------|--------|--------|-0-3-4-5--5-5-|----------|

01:06
G|--------------|--s--9---------|
D|--------------|-7\9---9-7-----|
A|--------------|-----------9-7-|
E|-0-3-4-5--5-5-|---------------|


-----------------------------
01:11
VERSE 2
********
G|--------|--------|--------|-----------------|--------|----------|------------|
D|--------|--------|-7--7-7-|-7--7-7----------|--------|----------|------------|
A|-5--5-5-|-5--5-5-|--------|--------5-7--7-7-|-5--3---|----------|-4-5-7--7-7-|
E|--------|--------|--------|-----------------|------5-|-5-7--7-7-|------------|

01:28
G|--------|--------|------------|--------|--------------|
D|--------|--------|------------|--------|--------------|
A|--------|--------|-4-5-7--7-7-|-7--7-7-|--------------|
E|-5--5-5-|-5--5-5-|------------|--------|-0-3-4-5--5-5-|

01:38
G|--------|------------|--------|--------------|
D|--------|------------|--------|--------------|
A|--------|-4-5-7--7-7-|-7--7-7-|--------------|
E|-5--5-5-|------------|--------|-0-3-4-5--5-5-|

01:46
G|--------|---------|--------|--------|--------|--------|--------------|----------|
D|--------|---------|--------|--------|--------|--------|--------------|----------|
A|--------|-0-2-4-5-|-5--5-5-|-5--5-5-|-7--7-7-|-7--7-7-|--------------|-5-7--7-7-|
E|-5--5-5-|---------|--------|--------|--------|--------|-0-3-4-5--5-5-|----------|

02:02
G|--------------|--s--9------------|
D|--------------|-7\9---9-7--------|
A|--------------|-----------10-9-7-|
E|-0-3-4-5--5-5-|------------------|


-----------------------------
02:07
VERSE 3
********
G|--------|--------|-----------|-----------------|--------|----------|------------|
D|--------|--------|--s-7--7-7-|-7--7-7----------|--------|----------|------------|
A|-5--5-5-|-5--5-5-|-5\--------|--------5-7--7-7-|-5--3---|----------|-4-5-7--7-7-|
E|--------|--------|-----------|-----------------|------5-|-5-7--7-7-|------------|

02:24
G|--------|------------|--------------|-------------------------|
D|--------|------------|--------------|--------------4-5-7--7-7-|
A|--------|-4-5-7--7-7-|--------------|-4-5-7--7-7-7------------|
E|-5--5-5-|------------|-0-3-4-5--5-5-|-------------------------|



G|-6-7-9--7-6-----|--------|--------|---|
D|------------9---|--------|--------|---|
A|--------------7-|--------|--------|---|
E|----------------|-5--5-5-|-5--5-5-|-5-|



ENJOY.............
Suggest correction
Give kudos to tab author, rate the tab!
1 2 3 4 5
comments
print report bad tab
guest
You may want to rate the tab now too:
select rating
Wanna post a correction for this tab? Suggest correction