Oops, an error
Loading. Please wait.

Glory Woman Bass Tab

13 views 3 this week
no commentswrite comment
1 2 3 4 5
2 more votes to show rating
add to favorites
launch autoscroll
font size
0
reset
guitar tuner
Autoscroll
slow
fast
+/-
esc
set tempo
stop
Help us to improve Ultimate-Guitar.com Take our survey!
×
Author
Difficulty
novice
--------------------------------------------------------------------------
                            Artist - Showaddywaddy
                           ************************
                              Song - Glory Woman
                             ********************
                             Tabbed By - Ayreon77
                            **********************
--------------------------------------------------------------------------
Tuning = Standard             


INTRO
******                   
G|---------------------|-----------|-4-----7-7-|-----------|--h---h---h---h---s-|
D|------5~~~------5~~~-|---4-5-7-7-|---7-5-----|---4-5-7-7-|-7-9-7-9-7-9-7-9-9\-|
A|-5~~~------5~~~------|-5---------|-----------|-5---------|--------------------|
E|---------------------|-----------|-----------|-----------|--------------------|


---------------------------
00:18
VERSE 1
********
G|------------|--------|------------------|-------------|
D|------------|-5--5-5-|---7--7-7---7-----|-------------|
A|-5--5-5-5-5-|--------|-7--------7---7-5-|-5-5-------5-|
E|------------|--------|------------------|-----7-5-7---|


G|------------|--------|------------------|-----------|
D|------------|-5--5-5-|---7--7-7---7-----|-------4-5-|
A|-5--5-5-5-5-|--------|-7--------7---7-5-|-5-5-7-----|
E|------------|--------|------------------|-----------|


G|-----------|-------------|-------------|-------------|---------|-----------|
D|-5-5---5-7-|-7-7---7-----|-------------|-------------|---------|-----------|
A|-----5-----|-----7---7-5-|-5-5---5-4-2-|-2-2-2-2-0---|---------|-------4-5-|
E|-----------|-------------|-----5-------|-----------4-|-4-4-4-5-|-5-5-7-----|

00:41
G|-------------|-------------|
D|-------------|-------------|
A|-5-5-------5-|-5-5-------5-|
E|-----7-5-7---|-----7-5-7---|


---------------------------
00:45
VERSE 2
********
G|------------|--------|------------------|-------------|
D|------------|-5--5-5-|---7--7-7---7-----|-------------|
A|-5--5-5-5-5-|--------|-7--------7---7-5-|-5-5-------5-|
E|------------|--------|------------------|-----7-5-7---|


G|------------|--------|------------------|-----------|
D|------------|-5--5-5-|---7--7-7---7-----|-------4-5-|
A|-5--5-5-5-5-|--------|-7--------7---7-5-|-5-5-7-----|
E|------------|--------|------------------|-----------|


G|-----------|-------------|-------------|-------------|---------|-----------|
D|-5-5---5-7-|-7-7---7-----|-------------|-------------|---------|-----------|
A|-----5-----|-----7---7-5-|-5-5---5-4-2-|-2-2-2-2-0---|---------|-------4-5-|
E|-----------|-------------|-----5-------|-----------4-|-4-4-4-5-|-5-5-7-----|

01:08
G|-------------|-------------|
D|-------------|-------------|
A|-5-5-------5-|-5-5-------5-|
E|-----7-5-7---|-----7-5-7---|


---------------------------
01:10
CHORUS
*******
G|-------------|-------------|-------------|---------|
D|-----------5-|-5-5---------|-------------|-------4-|
A|-5-5---------|-----7-5---5-|-5-5-------5-|-5-5-7---|
E|-----7-5-7---|---------7---|-----7-5-7---|---------|


G|--------------|----------------------------|-------|-------|
D|-4--4---4---5-|-5-5---5---7--7-7-7---7---7-|-7-7-7-|-5-4---|
A|------5---5---|-----5---5----------7---7---|-------|-----5-|
E|--------------|----------------------------|-------|-------|

01:23
G|-------------|-------------|-------------|---------|
D|-----------5-|-5-5---------|-------------|-------4-|
A|-5-5---------|-----7-5---5-|-5-5-------5-|-5-5-7---|
E|-----7-5-7---|---------7---|-----7-5-7---|---------|


G|--------------|----------------------------|-------|-----|
D|-4--4---4---5-|-5-5---5---7--7-7-7---7---7-|-7-7-7-|-5-4-|
A|------5---5---|-----5---5----------7---7---|-------|-----|
E|--------------|----------------------------|-------|-----|


---------------------------
01:36
BREAK
******                              s
G|-----------------|----s------|---5\7-5-4-|---10-8-7-|---s---15-13-12-|---|
D|-----5~~-7~~-----|---5\7-5-4-|-5---------|-7--------|-11\13----------|-0-|
A|-5~~---------5~~-|-5---------|-----------|----------|----------------|---|
E|-----------------|-----------|-----------|----------|----------------|---|


---------------------------
02:01
VERSE 2
********
G|---------|--------------------------|---------|-------------|---------|-----------|
D|-----4-5-|-4-4-------7--7-7---7-----|---------|-------------|---------|-----------|
A|-5-7-----|-----7-5-7--------7---7-5-|-5-5-4-2-|-2-2-2-2-0---|---------|-------4-5-|
E|---------|--------------------------|---------|-----------4-|-4-4-4-5-|-5-5-7-----|

02:12
G|-------------|-------------|
D|-------------|-------------|
A|-5-5-------5-|-5-5-------5-|
E|-----7-5-7---|-----7-5-7---|


---------------------------
02:15
CHORUS
*******
G|-------------|-------------|-------------|---------|
D|-----------5-|-5-5---------|-------------|-------4-|
A|-5-5---------|-----7-5---5-|-5-5-------5-|-5-5-7---|
E|-----7-5-7---|---------7---|-----7-5-7---|---------|


G|----------------|----------------------------|-------|-------|
D|-4--4-4---4---5-|-5-5---5---7--7-7-7---7---7-|-7-7-7-|-5-4---|
A|--------5---5---|-----5---5----------7---7---|-------|-----5-|
E|----------------|----------------------------|-------|-------|

01:23
G|-------------|-------------|-------------|---------|
D|-----------5-|-5-5---------|-------------|-------4-|
A|-5-5---------|-----7-5---5-|-5-5-------5-|-5-5-7---|
E|-----7-5-7---|---------7---|-----7-5-7---|---------|


G|----------------|----------------------------|-------|-------|
D|-4--4-4---4---5-|-5-5---5---7--7-7-7---7---7-|-7-7-7-|-5-4---|
A|--------5---5---|-----5---5----------7---7---|-------|-----5-|
E|----------------|----------------------------|-------|-------|


---------------------------
CHORUS
*******
G|-------------|-------------|-------------|---------|
D|-----------5-|-5-5---------|-------------|-------4-|
A|-5-5---------|-----7-5---5-|-5-5-------5-|-5-5-7---|
E|-----7-5-7---|---------7---|-----7-5-7---|---------|


G|----------------|----------------------------|-------|-------|
D|-4--4-4---4---5-|-5-5---5---7--7-7-7---7---7-|-7-7-7-|-5-4---|
A|--------5---5---|-----5---5----------7---7---|-------|-----5-|
E|----------------|----------------------------|-------|-------|

01:23
G|-------------|-------------|-------------|---------|
D|-----------5-|-5-5---------|-------------|-------4-|
A|-5-5---------|-----7-5---5-|-5-5-------5-|-5-5-7---|
E|-----7-5-7---|---------7---|-----7-5-7---|---------|


G|----------------|----------------------------|-------|-----|
D|-4--4-4---4---5-|-5-5---5---7--7-7-7---7---7-|-7-7-7-|-5-4-|
A|--------5---5---|-----5---5----------7---7---|-------|-----|
E|----------------|----------------------------|-------|-----|


---------------------------
03:07
OUTRO
******
G|---------------------|-----------|-4-----7-7-|-----------|--------|--------|--------|-------|
D|------5~~~------5~~~-|---4-5-7-7-|---7-5-----|---4-5-7-7-|-9------|-9------|-9------|-------|
A|-5~~~------5~~~------|-5---------|-----------|-5---------|--------|--------|--------|--h--s-|
E|---------------------|-----------|-----------|-----------|---7-10-|---7-10-|---7-10-|-7-10\-|



ENJOY...........
Suggest correction
Give kudos to tab author, rate the tab!
1 2 3 4 5
comments
print report bad tab
guest
You may want to rate the tab now too:
select rating
Wanna post a correction for this tab? Suggest correction