Oops, an error
Loading. Please wait.

Hey Mister Christmas Bass Tab

28 views 9 this week
no commentswrite comment
1 2 3 4 5
2 more votes to show rating
add to favorites
launch autoscroll
font size
0
reset
guitar tuner
Autoscroll
slow
fast
+/-
esc
set tempo
stop
Help us to improve Ultimate-Guitar.com Take our survey!
×
Author
Difficulty
novice
--------------------------------------------------------------------------
                            Artist - Showaddywaddy
                           ************************
                         Song - Hey Mister Christmas
                        *****************************
                            Tabbed By - Ayreon77
                           **********************
--------------------------------------------------------------------------
Tuning = Standard             



CHORUS
*******
G|-------------|-------|-------|-------------|-------|-------|
D|-------------|-------|-------|-------------|-------|-------|
A|-0-0-0-----0-|-----0-|-----0-|-2-2-2-----2-|-----2-|-----2-|
E|-------0-2---|-0-2---|-0-2---|-------2-4---|-2-4---|-2-4---|


G|-------------|-------|-------|-------------|-------|-------|
D|-------------|-------|-------|-------------|-------|-------|
A|-5-5-5-----5-|-----5-|-----5-|-0-0-0-----0-|-----0-|-----0-|
E|-------5-7---|-5-7---|-5-7---|-------0-2---|-0-2---|-0-2---|

00:22
G|-------------|-------|-------|-------------|-------|-------|
D|-------------|-------|-------|-------------|-------|-------|
A|-0-0-0-----0-|-----0-|-----0-|-2-2-2-----2-|-----2-|-----2-|
E|-------0-2---|-0-2---|-0-2---|-------2-4---|-2-4---|-2-4---|


G|-------------|-------------|--------------------------|
D|-------------|-------------|--------------------------|
A|-5-5-5-----5-|-7-7-7-----7-|-0-0-0-----0--------------|
E|-------5-7---|-------7-9---|-------0-2---3-3-3-0--0-2-|


------------------------
00:37
VERSE 1
********
G|-------------------------|-------------------------|
D|-------------------------|-------------------------|
A|-0-0-0-------0-0-0-----0-|-2-2-2-------2-2-2-----2-|
E|-------0-2-0-------0-2---|-------2-4-2-------2-4---|


G|-------------------------|---------------------|
D|-2-2-2-------2-2-2-----2-|---------------------|
A|-------2-4-2-------2-4---|-5-5-5---------------|
E|-------------------------|-------0-3-4-5-5-2-3-|

00:51
G|-------------------------|-------------------------|
D|-------------------------|-------------------------|
A|-0-0-0-------0-0-0-----0-|-2-2-2-------2-2-2-----2-|
E|-------0-2-0-------0-2---|-------2-4-2-------2-4---|


G|-------------|-------------|-------------|---------|
D|-------------|-------------|-------------|---------|
A|-5-5-5-------|-5-5-5-----5-|-7-7-7-------|-7-7-----|
E|-------5-7-5-|-------5-7---|-------7-9-7-|-----9-7-|


------------------------
01:04
CHORUS
*******
G|-------------|-------|-------|-------------|-------|-------|
D|-------------|-------|-------|-------------|-------|-------|
A|-0-0-0-----0-|-----0-|-----0-|-2-2-2-----2-|-----2-|-----2-|
E|-------0-2---|-0-2---|-0-2---|-------2-4---|-2-4---|-2-4---|


G|-------------|-------|-------|-------------|---------------|
D|-------------|-------|-------|-------------|---------------|
A|-5-5-5-----5-|-----5-|-----5-|-0-0-0-----0-|-----0---------|
E|-------5-7---|-5-7---|-5-7---|-------0-2---|-0-2---3-3-3-0-|


G|-------------|-------|-------|-------------|-------|-------|
D|-------------|-------|-------|-------------|-------|-------|
A|-0-0-0-----0-|-----0-|-----0-|-2-2-2-----2-|-----2-|-----2-|
E|-------0-2---|-0-2---|-0-2---|-------2-4---|-2-4---|-2-4---|


G|-------------|-------------|--------------------------|
D|-------------|-------------|--------------------------|
A|-5-5-5-----5-|-7-7-7-----7-|-0-0-0-----0--------------|
E|-------5-7---|-------7-9---|-------0-2---3-3-3-0--0-2-|


------------------------
01:33
VERSE 2
********
G|-------------------------|-------------------------|
D|-------------------------|-------------------------|
A|-0-0-0-------0-0-0-----0-|-2-2-2-------2-2-2-----2-|
E|-------0-2-0-------0-2---|-------2-4-2-------2-4---|


G|-------------------------|---------------------|
D|-2-2-2-------2-2-2-----2-|---------------------|
A|-------2-4-2-------2-4---|-5-5-5---------------|
E|-------------------------|-------0-3-4-5-5-2-3-|

00:51
G|-------------------------|-------------------------|
D|-------------------------|-------------------------|
A|-0-0-0-------0-0-0-----0-|-2-2-2-------2-2-2-----2-|
E|-------0-2-0-------0-2---|-------2-4-2-------2-4---|


G|-------------|-------------|-------------|----------|
D|-------------|-------------|-------------|----------|
A|-5-5-5-------|-5-5-5-----5-|-7-7-7-------|-7--------|
E|-------5-7-5-|-------5-7---|-------7-9-7-|---10-9-7-|


------------------------
02:01
CHORUS
*******
G|-------------|-------|-------|-------------|-------|-------|
D|-------------|-------|-------|-------------|-------|-------|
A|-0-0-0-----0-|-----0-|-----0-|-2-2-2-----2-|-----2-|-----2-|
E|-------0-2---|-0-2---|-0-2---|-------2-4---|-2-4---|-2-4---|


G|-------------|-------|-------|-------------|----------------|
D|-------------|-------|-------|-------------|----------------|
A|-5-5-5-----5-|-----5-|-----5-|-0-0-0-----0-|----------------|
E|-------5-7---|-5-7---|-5-7---|-------0-2---|-3-3-3-0--0-2-0-|


G|-------------|-------|-------|-------------|-------|-------|
D|-------------|-------|-------|-------------|-------|-------|
A|-0-0-0-----0-|-----0-|-----0-|-2-2-2-----2-|-----2-|-----2-|
E|-------0-2---|-0-2---|-0-2---|-------2-4---|-2-4---|-2-4---|


G|-------------|-------------|--------------|
D|-------------|-------------|--------------|
A|-5-5-5-----5-|-7-7-7-----7-|-0---0--------|
E|-------5-7---|-------7-9---|---------2--2-|



ENJOY...........
Suggest correction
Give kudos to tab author, rate the tab!
1 2 3 4 5
comments
print report bad tab
guest
You may want to rate the tab now too:
select rating
Wanna post a correction for this tab? Suggest correction