Oops, an error
Loading. Please wait.

I Dont Like Rock N Roll No More Bass Tab

4 views 1 this week
no commentswrite comment
1 2 3 4 5
3 more votes to show rating
add to favorites
launch autoscroll
font size
0
reset
guitar tuner
Autoscroll
slow
fast
+/-
esc
set tempo
stop
Help us to improve Ultimate-Guitar.com Take our survey!
×
Author
Difficulty
novice
--------------------------------------------------------------------------
                            Artist - Showaddywaddy
                          *************************
                    Song - I Don't Like Rock n Roll No More
                   *****************************************
                            Tabbed By - Ayreon77
                           **********************
--------------------------------------------------------------------------
Tuning = Standard             


00:14
VERSE 1
********
    h 
G|-5-7-----|--s--------|------------------|---0-2------2---|
D|-----5~~-|-5\----s---|---------0--0-0-0-|-4-----0--4---0-|
A|---------|----3--\15-|-----2-3----------|----------------|
E|---------|-----------|-3----------------|----------------|


----------------------------
00:29
CHORUS
*******
G|-----0---|-----2---|-------------------|-----0---|-----2---|-------------------|
D|---2-----|-0-4---0-|-----0-------0-----|---2-----|-0-4---0-|-----0-------0-----|
A|-3-----3-|---------|---2---2---2-----2-|-3-----3-|---------|---2---2---2-----2-|
E|---------|---------|-3-------3-----3---|---------|---------|-3-------3-----3---|


G|-----0---|-----2---|-------------------------0---|-----2-----|
D|---2-----|-0-4---0-|-----0---2--2----2-----2---3-|-0-4---0---|
A|-3-----3-|---------|---2---2------2----2-3-------|-----------|
E|---------|---------|-3---------------------------|---------3-|


----------------------------
00:58
BRIDGE
*******
G|--------------------|---------------------------|--------------------|----------------------------|
D|--------------------|---------------------------|--------------------|----------------------------|
A|--------------------|---3--3-3-3--3-3---3---3-0-|--------------------|-3-5--5-5-5--5-5--5-5-3-2-0-|
E|-3--3-3--3-3--3-3-3-|-3---------------3---3-----|-3--3-3--3-3--3-3-3-|----------------------------|


G|--------------------|---------------------------|--------------------|----------------------------|
D|--------------------|---------------------------|--------------------|----------------------------|
A|--------------------|---3--3-3-3--3-3---3---3-0-|--------------------|-3-5--5-5-5--5-5--5-5-3-2-0-|
E|-3--3-3--3-3--3-3-3-|-3---------------3---3-----|-3--3-3--3-3--3-3-3-|----------------------------|


----------------------------
01:27
CHORUS
*******
G|-----0---|-----2---|-------------------|-----0---|-----2---|---------------------|
D|---2-----|-0-4---0-|-----0-------0-----|---2-----|-0-4---0-|-----0-------0-----0-|
A|-3-----3-|---------|---2---2---2-----2-|-3-----3-|---------|---2---2---2-----2---|
E|---------|---------|-3-------3-----3---|---------|---------|-3-------3-----3-----|


G|-----0---|-----2---|-------------------------0---|-----2-----|
D|---2-----|-0-4---0-|-----0---2--2----2-----2---3-|-0-4---0---|
A|-3-----3-|---------|---2---2------2----2-3-------|-----------|
E|---------|---------|-3---------------------------|---------3-|

01:54
G|-----------------------|
D|-----------------------|
A|-----------------------|
E|-3-3~~-3-3~~-3-3-3-3-3-|


----------------------------
02:00
STRINGS
********
G|--------------------|---------------------------|--------------------|----------------------------|
D|--------------------|---------------------------|--------------------|----------------------------|
A|--------------------|---3--3-3-3--3-3---3---3-0-|--------------------|-3-5--5-5-5--5-5--5-5-3-2-0-|
E|-3--3-3--3-3--3-3-3-|-3---------------3---3-----|-3--3-3--3-3--3-3-3-|----------------------------|


----------------------------
02:15
BRIDGE
*******
G|--------------------|---------------------------|--------------------|----------------------------|
D|--------------------|---------------------------|--------------------|----------------------------|
A|--------------------|---3--3-3-3--3-3---3---3-0-|--------------------|-3-5--5-5-5--5-5--5-5-3-2-0-|
E|-3--3-3--3-3--3-3-3-|-3---------------3---3-----|-3--3-3--3-3--3-3-3-|----------------------------|


----------------------------
02:29
CHORUS
*******
G|-----0---|-----2---|---------------------|-----0---|-----2---|---------------------|
D|---2-----|-0-4---0-|-----0-------0-----0-|---2-----|-0-4---0-|-----0-------0-----0-|
A|-3-----3-|---------|---2---2---2-----2---|-3-----3-|---------|---2---2---2-----2---|
E|---------|---------|-3-------3-----3-----|---------|---------|-3-------3-----3-----|


G|-----0---|-----2---|-------------------------0---|-----2-----|
D|---2-----|-0-4---0-|-----0---2--2----2-----2---3-|-0-4---0---|
A|-3-----3-|---------|---2---2------2----2-3-------|-----------|
E|---------|---------|-3---------------------------|---------3-|

                                      
G|-------------------------------0---|-----2---|---------------------|
D|------5-5--------------------2-----|-0-4---0-|-----0-------0-----0-|
A|----------8-8--7-7--5-5--3-3-----3-|---------|---2---2---2-----2---|
E|-3-3-------------------------------|---------|-3-------3-----3-----|

                                  Fade Out...........................................
G|-----0---|-----2---|---------------------|-----0---|-----2---|---------------------|
D|---2-----|-0-4---0-|-----0-------0-----0-|---2-----|-0-4---0-|-----0-------0-----0-|
A|-3-----3-|---------|---2---2---2-----2---|-3-----3-|---------|---2---2---2-----2---|
E|---------|---------|-3-------3-----3-----|---------|---------|-3-------3-----3-----|



ENJOy.........
Suggest correction
Give kudos to tab author, rate the tab!
1 2 3 4 5
comments
print report bad tab
guest
You may want to rate the tab now too:
select rating
Wanna post a correction for this tab? Suggest correction