Oops, an error
Loading. Please wait.

I Wonder Why Bass Tab

31 views 6 this week
no commentswrite comment
1 2 3 4 5
2 more votes to show rating
add to favorites
launch autoscroll
font size
0
reset
guitar tuner
Autoscroll
slow
fast
+/-
esc
set tempo
stop
Help us to improve Ultimate-Guitar.com Take our survey!
×
Author
Difficulty
novice
--------------------------------------------------------------------------
                            Artist - Showaddywaddy
                           ************************
                            Song - I Wonder Why
                           *********************
                            Tabbed By - Ayreon77
                           **********************
--------------------------------------------------------------------------
Tuning = Standard             


00:15
VERSE 1
********
G|------------|---------------|------------|---------------|
D|-8-----8----|-------------7-|-8-----8----|-------------7-|
A|----8-----8-|-6-----8--10---|----8-----8-|-6-----8--10---|
E|------------|----6----------|------------|----6----------|


----------------------------
00:25
VERSE 2
********
G|------------|---------------|------------|---------------|
D|-8-----8----|-------------7-|-8-----8----|-------------7-|
A|----8-----8-|-6-----8--10---|----8-----8-|-6-----8--10---|
E|------------|----6----------|------------|----6----------|X2


----------------------------
00:44
BRIDGE
*******
  Whoooooo
G|------------|---------------|------------|---------------|
D|-8-----8----|-------------7-|-8-----8----|-------------7-|
A|----8-----8-|-6-----8--10---|----8-----8-|-6-----8--10---|
E|------------|----6----------|------------|----6----------|
                               00:59
                               Ahhhhhhhhhh
G|------------|---------------|---------------------------------------|
D|-8-----8----|-------------7-|---5-8----5-8------------------------7-|
A|----8-----8-|-6-----8--10---|-6-----6------8---8---8--8--8-8-8-10---|
E|------------|----6----------|---------------------------------------|


----------------------------
01:06
VERSE 3
********
G|------------|---------------|------------|---------------|
D|-8-----8----|-------------7-|-8-----8----|-------------7-|
A|----8-----8-|-6-----8--10---|----8-----8-|-6-----8--10---|
E|------------|----6----------|------------|----6----------|


G|------------|---------------|------------|---------------|
D|-8-----8----|-------------7-|-8----------|-8-----8-6-5---|
A|----8-----8-|-6-----8--10---|----8--6----|----8--------8-|
E|------------|----6----------|----------6-|---------------|


----------------------------
01:25
BRIDGE
*******
  Ahhhhhhh
G|----------------------------|-------------------------|
D|---5-8----5-8----5-8----5-8-|-------------------------|
A|-6-----6------6------6------|---5-8---5-8---5-8---5-8-|
E|----------------------------|-6-----6-----6-----6-----|


G|------------------------------------------------------|
D|---5-8----5-8----5-8----5-8-------------------------7-|
A|-6-----6------6------6-------8---8---8--8--8-8-8-10---|
E|------------------------------------------------------|


----------------------------
01:45
VERSE 4
********
G|------------|---------------|------------|---------------|
D|-8-----8----|-------------7-|-8-----8----|-------------7-|
A|----8-----8-|-6-----8--10---|----8-----8-|-6-----8--10---|
E|------------|----6----------|------------|----6----------|


G|------------|---------------|------------|---------------|
D|-8-----8----|-------------7-|-8----------|-8-----8-6-5---|
A|----8-----8-|-6-----8--10---|----8--6----|----8--------8-|
E|------------|----6----------|----------6-|---------------|


----------------------------
02:05
BRIDGE
*******
  Ahhhhhhh
G|----------------------------|-------------------------|
D|---5-8----5-8----5-8----5-8-|-------------------------|
A|-6-----6------6------6------|---5-8---5-8---5-8---5-8-|
E|----------------------------|-6-----6-----6-----6-----|


G|------------------------------------------------------|
D|---5-8----5-8----5-8----5-8-------------------------7-|
A|-6-----6------6------6-------8---8---8--8--8-8-8-10---|
E|------------------------------------------------------|


----------------------------
02:25
VERSE 5
********
G|------------|---------------|------------|---------------|
D|-8-----8----|-------------7-|-8-----8----|-------------7-|
A|----8-----8-|-6-----8--10---|----8-----8-|-6-----8--10---|
E|------------|----6----------|------------|----6----------|


G|------------|---------------|------------|----------------|
D|-8-----8----|-------------7-|-8----------|-8-----8------7-|
A|----8-----8-|-6-----8--10---|----8--6----|----8----8-10---|
E|------------|----6----------|----------6-|----------------|


----------------------------
02:44
OUTRO
******
G|--------------|-----------|
D|-8-----8----8-|-----------|
A|----8-----8---|-6----6--8-|
E|--------------|----6------|X6  

                  Fade Out........... 



ENJOY..............
Suggest correction
Give kudos to tab author, rate the tab!
1 2 3 4 5
comments
print report bad tab
guest
You may want to rate the tab now too:
select rating
Wanna post a correction for this tab? Suggest correction