Oops, an error
Loading. Please wait.

In Above Your Head Bass Tab

4 views 1 this week
no commentswrite comment
1 2 3 4 5
3 more votes to show rating
add to favorites
launch autoscroll
font size
0
reset
guitar tuner
Autoscroll
slow
fast
+/-
esc
set tempo
stop
Help us to improve Ultimate-Guitar.com Take our survey!
×
Author
Difficulty
novice
--------------------------------------------------------------------------
                            Artist - Showaddywaddy
                          *************************
                          Song - In Above Your Head
                         ***************************
                            Tabbed By - Ayreon77
                           **********************
--------------------------------------------------------------------------
Tuning = Standard             



VERSE 1
********
    s
G|-7\9-7-4-----------|-------------|-------------|-------------|
D|------------s---s--|------s---s--|------s---s--|------s---s--|
A|-----------5\7-5\7-|-----5\7-5\7-|-----5\7-5\7-|-----5\7-5\7-|
E|---------3---------|-3-3---------|-3-3---------|-3-3---------|

00:13
G|-------------|-------------|-------------|-----------|
D|------s---s--|------s---s--|------s---s--|-----5-5---|
A|-----5\7-5\7-|-----5\7-5\7-|-----5\7-5\7-|---------7-|
E|-3-3---------|-3-3---------|-3-3---------|-3-3-------|


-----------------------------------
00:20
CHORUS
*******
G|------------|----------|------------|-------|
D|------------|----------|------------|-5-5---|
A|-7-7--7---7-|-5--5---5-|-3--3---0---|-----7-|
E|--------7---|------5---|------3---3-|-------|


G|----------|----------|------------------------------------------|---------|
D|----------|----------|------------------------------------------|---------|
A|-7--7---7-|-5--5---5-|-3--3-3----------3--3-3---3--3-3-4-5--5-5-|-5-3-2-0-|
E|------7---|------5---|---------3--3-3---------------------------|---------|

       s           s           s           s
G|----7\9-7-4---|-7\9-7-4---|-7\9-7-4---|-7\9-7-4-|
D|------------5-|---------5-|---------5-|---------|
A|--------------|-----------|-----------|---------|
E|-3------------|-----------|-----------|---------|


-----------------------------------
00:46
VERSE 2
********
G|-----------|-------------|-------------|-------------|
D|----s---s--|------s---s--|------s---s--|------s---s--|
A|---5\7-5\7-|-----5\7-5\7-|-----5\7-5\7-|-----5\7-5\7-|
E|-3---------|-3-3---------|-3-3---------|-3-3---------|

00:52
G|-------------|-------------|-------------|-----------|
D|------s---s--|------s---s--|------s---s--|-----5-5---|
A|-----5\7-5\7-|-----5\7-5\7-|-----5\7-5\7-|---------7-|
E|-3-3---------|-3-3---------|-3-3---------|-3-3-------|


-----------------------------------
00:59
CHORUS
*******
G|------------|----------|------------|-------|
D|------------|----------|------------|-5-5---|
A|-7-7--7---7-|-5--5---5-|-3--3---0---|-----7-|
E|--------7---|------5---|------3---3-|-------|


G|----------|----------|------------------------------------------|---------|
D|----------|----------|------------------------------------------|---------|
A|-7--7---7-|-5--5---5-|-3--3-3----------3--3-3---3--3-3-4-5--5-5-|-5-3-2-0-|
E|------7---|------5---|---------3--3-3---------------------------|---------|

       s           s           s           s
G|----7\9-7-4---|-7\9-7-4---|-7\9-7-4---|-7\9-7-4-|
D|------------5-|---------5-|---------5-|---------|
A|--------------|-----------|-----------|---------|
E|-3------------|-----------|-----------|---------|


-----------------------------------
01:26
SLIDE SOLO
************        s                       s                       
G|-----------|-----7\9-7-4-----------|-----7\9-7-4-|
D|----s---s--|----------------s---s--|-------------|
A|---5\7-5\7-|---------------5\7-5\7-|-------------|
E|-3---------|-3-3---------3---------|-3-3---------|


-----------------------------------
01:32
VERSE 3
********
G|-----------|-------------|-------------|-------------|
D|----s---s--|------s---s--|------s---s--|------s---s--|
A|---5\7-5\7-|-----5\7-5\7-|-----5\7-5\7-|-----5\7-5\7-|
E|-3---------|-3-3---------|-3-3---------|-3-3---------|

01:38
G|-------------|-------------|-------------|-----------|
D|------s---s--|------s---s--|------s---s--|-----5-5---|
A|-----5\7-5\7-|-----5\7-5\7-|-----5\7-5\7-|---------7-|
E|-3-3---------|-3-3---------|-3-3---------|-3-3-------|


-----------------------------------
01:45
CHORUS
*******
G|----------|----------|------------|-------|
D|----------|----------|------------|-5-5---|
A|-7--7---7-|-5--5---5-|-3--3---0---|-----7-|
E|------7---|------5---|------3---3-|-------|


G|----------|----------|------------------------------------------|---------|
D|----------|----------|------------------------------------------|---------|
A|-7--7---7-|-5--5---5-|-3--3-3----------3--3-3---3--3-3-4-5--5-5-|-5-3-2-0-|
E|------7---|------5---|---------3--3-3---------------------------|---------|

02:05
G|----------|----------|------------|-------|
D|----------|----------|------------|-5-5---|
A|-7--7---7-|-5--5---5-|-3--3---0---|-----7-|
E|------7---|------5---|------3---3-|-------|


G|----------|----------|------------------------------------------|---------|
D|----------|----------|------------------------------------------|---------|
A|-7--7---7-|-5--5---5-|-3--3-3----------3--3-3---3--3-3-4-5--5-5-|-5-3-2-0-|
E|------7---|------5---|---------3--3-3---------------------------|---------|

02:25
G|----------|----------|------------|-------|
D|----------|----------|------------|-5-5---|
A|-7--7---7-|-5--5---5-|-3--3---0---|-----7-|
E|------7---|------5---|------3---3-|-------|

                    Fade Out................................................
G|----------|----------|------------------------------------------|---------|
D|----------|----------|------------------------------------------|---------|
A|-7--7---7-|-5--5---5-|-3--3-3----------3--3-3---3--3-3-4-5--5-5-|-5-3-2-0-|
E|------7---|------5---|---------3--3-3---------------------------|---------|



ENJOY................
Suggest correction
Give kudos to tab author, rate the tab!
1 2 3 4 5
comments
print report bad tab
guest
You may want to rate the tab now too:
select rating
Wanna post a correction for this tab? Suggest correction