Oops, an error
Loading. Please wait.

Johnny Remember Me Bass Tab

7 views 1 this week
no commentswrite comment
1 2 3 4 5
2 more votes to show rating
add to favorites
launch autoscroll
font size
0
reset
guitar tuner
Autoscroll
slow
fast
+/-
esc
set tempo
stop
Help us to improve Ultimate-Guitar.com Take our survey!
×
Author
Difficulty
novice
--------------------------------------------------------------------------
                            Artist - Showaddywaddy
                           ************************
                          Song - Johnny Remember Me
                         ***************************
                            Tabbed By - Ayreon77
                           **********************
--------------------------------------------------------------------------
Tuning = Standard             


00:36                                00:42
G|----------------------------------------|-----------------|-----------------|
D|-9-9-9-9-9-9-9-9-9-9-9-9-9-9-9-9-9--9~~-|-9---9---9---9---|-9---9---9---9---|
A|----------------------------------------|---9---9---9---9-|---9---9---9---9-|
E|----------------------------------------|-----------------|-----------------|


-------------------------
00:50
VERSE 1
********
G|---------|-----------------|----------|-----------------|
D|-9---9---|-7---7---9---9---|------7---|-9---9---9---9---|
A|---9---9-|---7---7---9---9-|-7------7-|---9---9---9---9-|
E|---------|-----------------|---7------|-----------------|


G|---------|-----------------|----------|-----------------|
D|-9---9---|-7---7---9---9---|------7---|-9---9---9---9---|
A|---9---9-|---7---7---9---9-|-7------7-|---9---9---9---9-|
E|---------|-----------------|---7------|-----------------|


-------------------------
01:07
CHORUS
*******
G|-----------------|-----------------|
D|-9---9---9---9---|-----------------|
A|---9---9---9---9-|-9---9---9---9---|
E|-----------------|---9---9---9---9-|


-------------------------
01:13
PRE CHORUS
***********
G|------------------------|------------------|
D|-------4-5-7----7-5-4---|------------------|
A|-5---5--------7-------7-|-5---5----7-------|
E|---5--------------------|---5---5----7-5-0-|


G|-----------------|-----------------|
D|-9---9---9---7---|-9---9---9---9---|
A|---9---9---9---7-|---9---9---9---9-|
E|-----------------|-----------------|


-------------------------
01:25
CHORUS
*******
G|-----------------|-----------------|
D|-9---9---9---9---|-----------------|
A|---9---9---9---9-|-9---9---9---9---|
E|-----------------|---9---9---9---9-|


-------------------------
01:30
BRIDGE
*******
G|---------------------|-----------------|---------|----------|
D|-5---5---7---7-5-4---|-----------------|---------|--------s-|
A|---5---5---7-------7-|-5---5---5---5---|-7---7---|-------7\-|
E|---------------------|---5---5---5---5-|---7---7-|-5-0-5----|


G|---------|---------|-----------------|---------------------|
D|---------|---------|-9---9---9---9---|-9---9---------------|
A|-3---3---|-7---7---|---9---9---9---9-|---9---9-9-9-9-9-9-9-|
E|---3---3-|---7---7-|-----------------|---------------------|


-------------------------
01:48
BREAK
******
G|---------|-----------------|---------|---------|------------|
D|-9---9---|-7---7---9---9---|-7---7---|-9---9---|-7---7------|
A|---9---9-|---7---7---9---9-|---7---7-|---9---9-|---7---7-9--|
E|---------|-----------------|---------|---------|------------|


G|---------|---------|-----------------|------------------|
D|-9---9---|-7---7---|-----------------|------------------|
A|---9---9-|---7---7-|-9-9-9-9-9-9-9-9-|-9-9-9-9-9-9-9-9--|
E|---------|---------|-----------------|------------------|

02:02
G|-------------------------------------------------|
D|-999--777---999--777---999--777---999--777---999-|
A|-------------------------------------------------|
E|-------------------------------------------------|


-------------------------
02:05
VERSE 2
********
G|---------|-----------------|----------|-----------------|
D|-9---9---|-7---7---9---9---|------7---|-9---9---9---9---|
A|---9---9-|---7---7---9---9-|-7------7-|---9---9---9---9-|
E|---------|-----------------|---7------|-----------------|


-------------------------
02:13
PRE CHORUS
***********
G|------------------------|------------------|
D|-------4-5-7----7-5-4---|------------------|
A|-5---5--------7-------7-|-5---5----7-------|
E|---5--------------------|---5---5----7-5-0-|


G|-----------------|-----------------|
D|-9---9---9---7---|-9---9---9---9---|
A|---9---9---9---7-|---9---9---9---9-|
E|-----------------|-----------------|


-------------------------
02:25
CHORUS
*******
G|-----------------|---------------7-|
D|-9---9---9---9---|-4---4---4---7---|
A|---9---9---9---9-|---4---4---4-----|
E|-----------------|-----------------|

02:31
G|-----------7---------9-------|-----------------|
D|-7-4-----7---7-4---9---9---9-|-----------------|
A|-----5-5---------5-------9---|-5---5---5---5---|
E|-----------------------------|---5---5---5---5-|

02:37                                      s
G|---------|-------9-s--|---------|-------9\---|
D|---------|-7---7---7\-|-9---9---|-7---7----7-|
A|-7---7---|---7--------|---9---9-|---7--------|
E|---7---7-|------------|---------|------------|


G|-----------------|---------------------------|---------------------------------|
D|-9---9---9---9---|-9---9---9-----------------|-9-7--9-7--9-7--9-7--9-7--9-7--9-|
A|---9---9---9---9-|---9---9---9-9-9-9-9-9-9-9-|---------------------------------|
E|-----------------|---------------------------|---------------------------------|



ENJOY...........
Suggest correction
Give kudos to tab author, rate the tab!
1 2 3 4 5
comments
print report bad tab
guest
You may want to rate the tab now too:
select rating
Wanna post a correction for this tab? Suggest correction