Oops, an error
Loading. Please wait.

Under The Moon Of Love Bass Tab

109 views 6 this week
1 commentread comment
1 2 3 4 5
2 more votes to show rating
add to favorites
launch autoscroll
font size
0
reset
guitar tuner
Autoscroll
slow
fast
+/-
esc
set tempo
stop
Help us to improve Ultimate-Guitar.com Take our survey!
×
Author
Under The Moon Above
Originally recorded by Curtis Lee in 1961, this version was the only 
UK number 1 for the Rock ‘n’ Roll band Showaddywaddy in 1976.
Tab by bass50611.  More or less as original bass line…..I think!
Symbol ‘.’ are pauses.  Comments at bass254@btinternet.com      

Intro: (Drum Roll Start)

G|---------------------------------------------------------------|
D|---------------------------------------------------------------|
A|--0-2-3-----3-----------------------3-----3--------------------|
E|-3-------3-----3---3-5--0---5--0---3---3-----3---3-5--0---5--0-|

Verse 1:                                                    ‘.’
G|-------------------------------------------------------------|
D|-------------------------------------------------------------|
A|--3-----3-----------------------3-----3----------------------|
E|-3---3-----3---3-5--0---5--0---3---3-----3---3-5--0---5--0h1-|

G|-------------------------------------------------------------|
D|--------------------------4-5-6--7-5-4---------3--3----------|
A|------------3--2-1-------5------7-----7---3--3------3----0-2-|
E|-1-1---1-1--------5--0----------------------------------3----|

Verse 2:                                                    ‘.’
G|-------------------------------------------------------------|
D|-------------------------------------------------------------|
A|--3-----3-----------------------3-----3----------------------|
E|-----3-----3---3-5--0---5--0---3---3-----3---3-5--0---5--0h1-|

G|--------------------------------------------------------------|
D|--------------------------4-5-6--7-5-4---------3--3-------0-2-|
A|------------3--2-1-------5------7-----7---3--3------3----3----|
E|-1-1---1-1--------5--0----------------------------------------|

Bridge:                                          (Break – Spoken Bit)
G|-------------------------------------------------|
D|-3--3--3--3----------------------------5-5-5-5-5-|
A|------------0-3--3--3--3-4-5--5--5--5------------|
E|-------------------------------------------------|

Verse 3:
  Let’s go for a little walk...                                        ‘.’
G|------------------------------------------------------------------------|
D|------------------------------------------------------------------------|
A|-------------------------------------------3-----3----------------------|
E|--------------------------3-5--0---5--0---3---3-----3---3-5--0---5--0h1-|

                                                               (Break)
G|---------------------------------------------------------------|
D|--------------------------4-5-6--7-5-4---------3--3------------|
A|------------3--2-1-------5------7-----7---3--3------3----------|
E|-1-1---1-1--------5--0---------------------------------3--3--3-|

Short Drum Solo:

Interlude:                                                      ‘.’
G|-----------------------------------------------------------------|
D|-----------------------------------------------------------------|
A|--0-2-3-----3-----------------------3-----3----------------------|
E|-3-------3-----3---3-5--0---5--0---3---3-----3---3-5--0---5--0h1-|

G|--------------------------------------------------------------|
D|--------------------------4-5-6--7-5-4---------3--3-------0-2-|
A|------------3--2-1-------5------7-----7---3--3------3----3----|
E|-1-1---1-1--------5--0----------------------------------------|

Bridge:                                          (Break – Spoken Bit)
G|-------------------------------------------------|
D|-3--3--3--3----------------------------5-5-5-5-5-|
A|------------0-3--3--3--3-4-5--5--5--5------------|
E|-------------------------------------------------|

Outro:                                            (Repeat To Fade/End)
G|-----------------------------------------------------------|
D|-----------------------------------------------------------|
A|------------------3-----3-----------------------3-----3----|
E|-3-5--0---5--0---3---3-----3---3-5--0---5--0---3---3-----3-|


Let's go for a little walk
Under the moon of love
Let's sit down and talk
Under the moon of love
I wanna tell ya
That I love ya
And I want you to be my girl
Little darling let's walk
Let's talk
Under the moon of love
You look so lovely
Under the moon of love
Your eyes shine so brightly
Under the moon of love
I wanna go all the time
You'll be my love tonight
Little darling let's walk
Let's talk
Under the moon of love
I wanna talk sweet talk
Whisper things in your ear
I wanna tell ya the things
I know you've been waiting to hear
Come on little darling take my hand
Let's go for a little walk . . .
Suggest correction
Give kudos to tab author, rate the tab!
1 2 3 4 5
comments
print report bad tab
1 comment total.
0 reply
JackDelonge 57 Sep 13, 2016 12:38 PM

Great tab, thank you!

guest
You may want to rate the tab now too:
select rating
Wanna post a correction for this tab? Suggest correction