Oops, an error
Loading. Please wait.

When bass

112 views 6 this week
no commentswrite comment
1 2 3 4 5
2 more votes to show rating
add to favorites
×
Save as Personal and add changes to this tab that will be seen only by you. Learn more ›
×
You can save this tab as Personal to edit and correct it or add notes. All changes will be seen only by you. Learn more »
launch autoscroll
font size
0
reset
guitar tuner
edit
Autoscroll
slow
fast
+/-
esc
set tempo
stop
Author
When
Originally recorded by the Kalin Twins this version by Showaddywaddy
Peaked at number 3 UK chart in 1977. Tab by bass50611.
Welcome to my tab of this good old Rock n Roll song. It just doesn’t 
Get any better. Enjoy!  (Symbol x is a muted note)

Intro:                            (Play This Bit x2)
G|----------------------------------------------|
D|----------------------5---5--5---7---7--------|
A|-5---5--5---2---2--2----5---5------7----0-2-4-|
E|---5---5------2---2---------------------------|

Verse 1:
G|------------------------------------------------------------------|
D|----------------------5---5--5---7---7----------------------------|
A|-5---5--5---2---2--2----5---5------7----0-2-4-5---5--5---2---2--2-|
E|---x---5------2---2-----------------------------x---5------2---2--|

G|---------------------|
D|-5---5--5---7---7--7-|
A|---5---5------7---7--|
E|---------------------|

Bridge 1:  (Break)                    (Break)
G|------------------------------------------------------|
D|-5--5--5---------------------5--5--5------------------|
A|--------------------5---5--5------------------5-----5-|
E|----------------------5---5---------------------------|

Verse 2:
G|---------------------------------------------------------------------|
D|----------------------5---5--5---7---7--7--------5--5--------0--2--4-|
A|-5---5--5---2---2--2----5---5------7---7---5--5--------5--5----------|
E|---x---5------2---2--------------------------------------5-----------|

Bridge 2:  (Break)                            (Break)
G|-------------------------------------------------------------|
D|-5--5--5-------------------0--2--4--5--5--5------------------|
A|--------------------5---5----------------------------5-----5-|
E|----------------------5--------------------------------------|

Interlude: 
G|--------------------------------------------------------------------|
D|----------------------5---5--5---7---7--7--------5--5-------------0-|
A|-5---5--5---2---2--2----5---5------7---7---5--5--------5---5---3----|
E|---5---5------2---2--------------------------------------5---6------|

Verse 3: (Key Change Eb)
G|---------------------1---1--1---3---3-----------------------------|
D|-1---1--1--------------1---1------3---------0--1---1--1-----------|
A|---x---1---3---3--3--------------------1--3------x---1---3---3--3-|
E|-------------3---3-----------------------------------------3---3--|


G|-1---1--1---3---3--3-------1--1-------------0-|
D|---1---1------3---3---1--1------1---1--1--3---|
A|----------------------------------1-----------|
E|----------------------------------------------|

Bridge 3: (Break)                       (Break)
G|-1--1--1---------------------0--1--1--1-----------------|
D|-----------------1---1--1--3--------------------1-----1-|
A|-------------------1------------------------------------|
E|--------------------------------------------------------|

Interlude Outro:                      (Repeat To Fade/End)
G|---------------------1---1--1---3---3---------|
D|-1---1--1--------------1---1------3---------0-|
A|---1---1---3---3--3--------------------1--3---|
E|-------------3---3----------------------------|

Symbol: x is muted note

            
            
Suggest correction
Creating personal tab
Creating personal tab
You can edit any tab online and save it as your Personal.

You can edit, replace or remove any tab part or add personal notes – all changes will be seen only by you.

Personal tabs can be accessed anytime from any device, even offline.
Learn more »
Give kudos to tab author, rate the tab!
1 2 3 4 5
comments
print report bad tab
guest
You may want to rate the tab now too:
select rating
Wanna post a correction for this tab? Suggest correction