Oops, an error
Loading. Please wait.

Matthias Replaces Judas tab

6,338 views 1 this week
6 commentsread comments
1 2 3 4 5
x 9
add to favorites
×
Save as Personal and add changes to this tab that will be seen only by you. Learn more ›
×
You can save this tab as Personal to edit and correct it or add notes. All changes will be seen only by you. Learn more »
launch autoscroll
font size
0
reset
how to read this tab
guitar tuner
edit
Autoscroll
slow
fast
+/-
esc
set tempo
stop
Author
SHOWBREAD
No Sir, Nihilism Is not Practical
Matthias Replaces Judas-
Verse
e------------------------------------------------------------------------|
B------------------------------------------------------------------------|
G------99999999---66666666---22222222---44444444-------------------------|
D------99999999---66666666---22222222---44444444-------------------------|
A------77777777---44444444---00000000---22222222-------------------------|
E------------------------------------------------------------------------|
Riff 1
e------------------------------------------------------------------------|
B------------------------------------------------------------------------|
G------------------------------------------------------------------------|
D------9-9p7-7-7p6-6-6-6h7-7-7h9-9---9-11-11-11p9-9----------------------|
A------------------------------------------------------------------------|
E------------------------------------------------------------------------|
Riff 2
e----------------16------------------------------------------------------|
B------17--17--19----16--16--17-19-17--17--19-17--16--16--17-16----------|
G--------16--16--------16--16--------16--16---------16--16---------------|
D------------------------------------------------------------------------|
A------------------------------------------------------------------------|
E------------------------------------------------------------------------|
Post-verse?
e------------------------------------------------------------------------|
B------------------------------------------------------------------------|
G----999999999---------------66666666---------------22222222-------------|
D----999999999-9h7-7-7h6-6-6-66666666-6h4-4-4h2-2-2-22222222-------------|
A----777777777---------------44444444---------------00000000-------------|
E------------------------------------------------------------------------|
     PM........              .........
 end|_1.              end_2.
e------------------------------------------------------------------------|
B------------------------------------------------------------------------|
G----6666666644444444---------44444444-----------------------------------|
D----6666666644444444---------44444444-----------------------------------|
A----4444444422222222---------22222222-----------------------------------|
E------------------------------------------------------------------------|
     PM..............
Reese
e------------------------------------------------------------------------|
B------------------------------------------------------------------------|
G----66666666-22222222---------------------------------------------------|
D----66666666-22222222-22222222-66666666---------------------------------|
A----44444444-00000000-22222222-66666666---------------------------------|
E----------------------00000000-44444444---------------------------------|
Reese Gtr. 2
e------------------------------------------------------------------------|
B------------------------------------------------------------------------|
G----1313x-1111x-9-----99x-88x-6-----88x-99x-11--------------------------|
D-----x-xx--x-xx-x-----xxx-xxx-x-----xxx-xxx--x--------------------------|
A----1111x--9-9x-7-----77x-66x-4-----66x-77x--9--------------------------|
E------------------------------------------------------------------------|
Reese Vs. 2
e------------------------------------------------------------------------|
B------------------------------------------------------------------------|
G------99999999-99999999-66666666-44444444-------------------------------|
D------99999999-99999999-66666666-44444444-------------------------------|
A------77777777-66666666-44444444-22222222-------------------------------|
E------------------------------------------------------------------------|
Reese vs.2 Gtr. 2
e------------------------------------------------------------------------|
B------------------------------------------------------------------------|
G------------------------------------------------------------------------|
D-------99776666-99772222-664211111111-----------------------------------|
A------------------------------------------------------------------------|
E------------------------------------------------------------------------|

E                    C#m                               A
it is so that my transgressions have born a withered fruit,
                          B
the sun has scorched the rising plants;
                   E                          C#m
alas they have no root, the bleached bones of animals bound by leather
 A
strips,
B                              E
dance through the air with laughter as I wield this wicked whip,

                    C#m                                   A
as you did warn me carpenter, this world has weakened my heart,

             B                                      E
so easily I disparage, self-seeking the work of my art,

                          C#m                              A
and there you have come to me at the moment I bathe in my sorrow,

                 B                             E
so in love with myself, sought after avoiding tomorrow,
                       C#m                          A
where do you find the love to offer he who betrays you?

B                          E
and offer to wash my feet as I offer to disobey you,

C#m                             A
your beauty does bereave me, and how my words do fail,
                   B                            E
so faithfully and dutifully I award you with betrayal,


                       C#m                    A
the weak and the down trodden fall on broken legs,
                  B                          E
as I walk past a smile I cast, fervor in my stead,
                     A                        C#m
but my bones like plastic, do buckle backward now,

                        B                                E
I lay in this field by Judas' bowels and anticipate the plow,
              A                          C#m
I can not be forgiven; my wages will be paid,

                             B                          E
for those more lovely and admirable is least among the saved,
                        A
and where would I fit Jesus?
                      C#m
what place is left for me?
                           B                                      E
the price of atonement is more than I've found to offer up as my plea,

E                       C#m               A                    B
Jesus my heart is all I have to give to you, so weak and so unworthy,

                     E                C#m                     A
this simply will not do, no alabaster jar, no diamond in the rough,

                        B                        E
for your body that was broken, how can this be enough?

                 C#m                       A
by me you were abandoned, by me you were betrayed,

                     B                             E
yet in your arms and in your heart forever I have stayed

E                 C#m                                  A
Your glory illuminates my life, and no darkness will descend,

                        B                                E
for you have loved me forever, and your love will never end
Suggest correction
Creating personal tab
Creating personal tab
You can edit any tab online and save it as your Personal.

You can edit, replace or remove any tab part or add personal notes – all changes will be seen only by you.

Personal tabs can be accessed anytime from any device, even offline.
Learn more »
comments
print report bad tab
6 comments total. Showing first comments.
0 reply
boyinsin 10 Jun 06, 2008 06:51 AM

Riff 2
e----------------16------------------------------------------------------|
B------17--17--19----16--16--17-19-17--17--19-17--16--16--17-16----------|
G------------------------------------------------------------------------|
D------------------------------------------------------------------------|
A------------------------------------------------------------------------|
E------------------------------------------------------------------------|
Were the solo at 3:52?

0 reply
irokneeguitar 50 Sep 28, 2008 01:07 PM

love this song awesome tab dude rocks!

0 reply
Gsus Freak 93 Apr 11, 2009 02:15 PM

perfect, now do sum more lol

guest
You may want to rate the tab now too:
select rating
Wanna post a correction for this tab? Suggest correction