Oops, an error
Loading. Please wait.

Mouth Like A Magazine tab

version 2
version 2

Whole song

Interactive

679 views 1 this week
4 commentsread comments
1 2 3 4 5
2 more votes to show rating
add to favorites
×
Save as Personal and add changes to this tab that will be seen only by you. Learn more ›
×
You can save this tab as Personal to edit and correct it or add notes. All changes will be seen only by you. Learn more »
launch autoscroll
font size
0
reset
how to read this tab
guitar tuner
edit
Autoscroll
slow
fast
+/-
esc
set tempo
stop
Author
Difficulty
----------------------------------------------------------------------------
                             SONG NAME - Band Name
----------------------------------------------------------------------------
Tabbed by: Me
Email:
Tuning: STANDARD

INTRO:  FIRST TIME CLEAN AND THEN THE NEXT 2 TIMES WITH A LITTLE DISTORTION

e|-------------------------------------------------|  X1   ON 2ND & 3RD X PLAY THIS AT
B|-------------------------------------------------|       THE END
G|XX-XXX-XXX-X/X-----------------------------------|
D|66-666-666-4/6----44-444-444-44-------  D|44544--|
A|44-444-444-2/4----44-444-444-44-------  A|44544--|
E|XX-XXX-XXX-X/6-3B-22-222-222-02-------  E|02320--|

VERSE: CLEAN

e|------12---------12---------12---------12---12-12-11-11-12-12-11-11----| X2
B|13-14---14-13-14---14-13-14---14-13-14---14----------------------------|
G|-----------------------------------------------------------------------|
D|-----------------------------------------------------------------------|
A|-----------------------------------------------------------------------|
E|-----------------------------------------------------------------------|

CHORUS IS SAME AS THE SECOND AND THIRD PART OF THE INTRO

VERSE TWO IS THE SAME AS VERSE 1

BRIDGE:

e|--------------------------------------------------------------------------|
B|--------------------------------------------------------------------------|
G|--------------------------------------------------------------------------|
D|444444-444444-------------------------------------------------------------|
A|444444-444444-------------------------------------------------------------|
E|222222-222222-------------------------------------------------------------|

CHORUS

BRIDGE 2:PLAY EACH PART TWICE ... THEN PLAY THE WHOLE THING AGAIN

e|------- ------ ------ ----------------------------------------------------|
B|------- ------ ------ ----------------------------------------------------|
G|------- 444444 ------ 666666----------------------------------------------|
D|444444- 444444 222222 666666----------------------------------------------|
A|444444- 022222 222222 044444----------------------------------------------|
E|022222- ------ 000000 ----------------------------------------------------|

CHORUS 4X

OUTRO:

e|--------------------------------------------------------------------------|
B|-------------5-7-9-5-3----------------------------------------------------|
G|666666666666--------------------------------------------------------------|
D|666666666666--------------------------------------------------------------|
A|444444444444--------------------------------------------------------------|
E|--------------------------------------------------------------------------|


| /  slide up
| \  slide down
| h  hammer-on
| p  pull-off
| ~  vibrato
| +  harmonic
| x  Mute note
===============================================================================

            
            
Suggest correction
Creating personal tab
Creating personal tab
You can edit any tab online and save it as your Personal.

You can edit, replace or remove any tab part or add personal notes – all changes will be seen only by you.

Personal tabs can be accessed anytime from any device, even offline.
Learn more »
Give kudos to tab author, rate the tab!
1 2 3 4 5
comments
print report bad tab
4 comments total. Showing first comments.
0 reply
rokrdude 100 Jun 13, 2006 05:51 AM

on the slide part of the intro i meant to make it x not x
6 6
4 4
x 6

0 reply
rokrdude 100 Jun 13, 2006 05:54 AM

ok it supposed to be
x not x
6 6
4 4
x 6

0 reply
rokrdude 100 Jul 29, 2006 02:10 PM

an alternate way to play the intro which sounds a little better is
-6----------------
-6----------------
-4----------------
-5----------------
instead of
-x-------
-6-------
-4-------
-x-------

guest
You may want to rate the tab now too:
select rating
Wanna post a correction for this tab? Suggest correction