Oops, an error
Loading. Please wait.

Oh Emetophobia tab

version 4
version 4

Whole song

Interactive

391 views 3 this week
no commentswrite comment
1 2 3 4 5
3 more votes to show rating
add to favorites
×
Save as Personal and add changes to this tab that will be seen only by you. Learn more ›
×
You can save this tab as Personal to edit and correct it or add notes. All changes will be seen only by you. Learn more »
launch autoscroll
font size
0
reset
how to read this tab
guitar tuner
edit
Autoscroll
slow
fast
+/-
esc
set tempo
stop
Author
Difficulty
Band:Showbread
Song:Oh emetophobia!
Tuning:Standard Eadgbe

Ok this song is really good the dance and have fun to,so Enjoy
And be on the look out for some up coming songs,Im tabing George romero will be at our 
and,sing me to sleep age of reptiles(age of insects to)
Dinosaur Bone,The jesus lizard,NAked lunch,all I have Hatse the day Bleed alone the 
prophets and many more.
Slide up /
Slide down\
Bend b
Palm Mute ......
Slide Pick >>>>>>>>>>>


Cool intro By the Keytar

Guitar Two
e----------------------------------------|
B----------------------------------------|
G----------------------------------------|
D---------8------5-----------------------|
A---------8------5-----------------------|
E---------6------3-----------------------|
Reapet this five times


Guitar One(Slide at the middle of the fourth and fifth time guitar two plays its intro part)
e-----------------------------------------|
B-----------------------------------------|
G-----------------------------------------|
D------------------------------//////////-|
A-----------------------------//////////--|
E----------------------------//////////---|

Both guitars(strum The chords except for the the nine elevens count to three the change 
chord at four and the for the eight sixes strum then do the same as the nines
e---------------------------------------|
B---------------------------------------|
G---------------------------------------|
D---5---11---8---5---11---8---5---------|
A---5---11---8---5---11---8---5---------|
E---3---9----6---3---9----6---3---------|


Both guitars(This time lift up and stay on the chord except for the nine and the second 
of the eights)
e---------------------------------------|
B---------------------------------------|
G---------------------------------------|
D---5---11---8---5---11---8---5---2-----|
A---5---11---8---5---11---8---5---2-----|
E---3---9----6---3---9----6---3---0-----|

Chorus Both guitars
e---------------------------------------|
B---------------------------------------|
G-----7---5-----------7---5-------------|
D-----7---5---8---5---7---5---3---7-----|
A-----5---3---8---5---5---3---3---7-----|
E-------------6---3-----------1---5-----|

(strum the last sevens and eights)
e---------------------------------------|
B---------------------------------------|
G-----7---5-----------7---5-------------|
D-----7---5---8---5---7---5---3---7-----|
A-----5---3---8---5---5---3---3---7-----|
E-------------6---3-----------1---5-----|

e---------------------------------------|
B---------------------------------------|
G---------------------------------------|
D---8---5---8---5---8---5---3---3---2---|
A---8---5---8---5---8---5---3---3---2---|
E---6---3---6---3---6---5---1---1---0---|


Guitar two (Palm mute this whole part)
e-----------------------------------------|
B-----------------------------------------|
G-----------------------------------------|
D---8---5---8---5---8---5---8---5---8---5-|
G---8---5---8---5---8---5---8---5---8---5-|
E---6---3---6---3---6---3---6---3---6---3-|

Guitar one
e------------------------------------------|
B------------------------------------------|
G------------------------------------------|
D------------------------------------------|
A------------------------------------------|>>>>>>>>
E------------------------------------------|>>>>>>>>

Both guitars
e---------------------------------------|
B---------------------------------------|
G---------------------------------------|
D---5---11---8---5---11---8---5---------|
A---5---11---8---5---11---8---5---------|
E---3---9----6---3---9----6---3---------|

e----------------------------------------|
B----------------------------------------|
G----------------------------------------|
D---5---11---8---5---11---8---5---2------|
A---5---11---8---5---11---8---5---2------|
E---3---9----6---3---9----6---3---0------|

Chorus Both guitars
e---------------------------------------|
B---------------------------------------|
G-----7---5-----------7---5-------------|
D-----7---5---8---5---7---5---3---7-----|
A-----5---3---8---5---5---3---3---7-----|
E-------------6---3-----------1---5-----|


e---------------------------------------|
B---------------------------------------|
G-----7---5-----------------------------|
D-----7---5---8---5---7---8---2---------|
A-----5---3---8---5---7---8---2---------|
E-------------6---3---5---6---0---------|


e---------------------------------------|
B---------------------------------------|
G---------------------------------------|
D---8---5---8---5---8---5---3---3---2---|
A---8---5---8---5---8---5---3---3---2---|
E---6---3---6---3---6---5---1---1---0---|

Guitar one
e-------------------------------------------|
B-------------------------------------------|
G-------------------------------------------|
D-----------------\\\\\\\\\\\\\\\\\\\\\\\---|
A-----8b8b8b8b8b8b0\\\\\\\\\\\\\\\\\\\\\\\--|
E-------------------\\\\\\\\\\\\\\\\\\\\\\\-|

guitar two
e---------------------------------------------|
B---------------------------------------------|
G---------------------------------------------|
D---------------------\\\\\\\\\\\\\\\\\\\\\---|
A----------------------\\\\\\\\\\\\\\\\\\\\\--|
E-----------------------\\\\\\\\\\\\\\\\\\\\\-|


both guitars
e---------------------------------------------|
B---------------------------------------------|
G---------------------------------------------|
D----22---5---22---5---22---5---22---5---////-|
A----22---5---22---5---22---5---22---5---////-|
E----00---3---00---3---00---3---00---3---////-|


guiatr one (Those are 15's 14's and 12's)
e-----------------------------------------------|
B-----------------------------------------------|
G----------------------------------------151412-|
D----22---5---22---5---22---5---22---5----------|
A----22---5---22---5---22---5---22---5----------|
E----00---3---00---3---00---3---00---3----------|
Repeat twice


guitar two

E---60050030000000060050030000-0000600500300000

E---0060050030---------------------------------

Both guitars
Just make the chord and the mute the strings and then play as fast as the song goes
e-----------------------------------------------|
B-----------------------------------------------|
G-----------------------------------------------|
D---8---7---5---2-------------------------------|
A---8---7---5---2-------------------------------|
E---6---5---3---0-------------------------------|
Play three times and then guita one does


e-------------------------------------------------|
B-------------------------------------------------|
G-------------------------------------------------|
D---8---7---5---2---/////////////////////////////-|
A---8---7---5---2---////////////////////////////--|
E---6---5---3---0---///////////////////////////---|


e-----------------------------------------------|
B-----------------------------------------------|
G-----------------------------------------------|
D---8---7---5---2-------------------------------|
A---8---7---5---2-------------------------------|
E---6---5---3---0-------------------------------|
Repeat twice


e-----------------------------------------------|
B-----------------------------------------------|
G-----------------------------------------------|
D---8---7---5---2-------------------------------|
A---8---7---5---2-------------------------------|
E---6---5---3---0-------------------------------|
Don't play the em a this time

e---------------------------------------|
B---------------------------------------|
G---------------------------------------|
D---5---11---8---5---11---8---5---------|
A---5---11---8---5---11---8---5---------|
E---3---9----6---3---9----6---3---------|


e---------------------------------------|
B---------------------------------------|
G---------------------------------------|
D---5---11---8---5---11---8---5---2-----|
A---5---11---8---5---11---8---5---2-----|
E---3---9----6---3---9----6---3---0-----|


Chorus Both guitars
e---------------------------------------|
B---------------------------------------|
G-----7---5-----------7---5-------------|
D-----7---5---8---5---7---5---3---7-----|
A-----5---3---8---5---5---3---3---7-----|
E-------------6---3-----------1---5-----|

(strum the last sevens and eights)
e---------------------------------------|
B---------------------------------------|
G-----7---5-----------7---5-------------|
D-----7---5---8---5---7---5---3---7-----|
A-----5---3---8---5---5---3---3---7-----|
E-------------6---3-----------1---5-----|

e---------------------------------------|
B---------------------------------------|
G---------------------------------------|
D---8---5---8---5---8---5---3---3---2---|
A---8---5---8---5---8---5---3---3---2---|
E---6---3---6---3---6---5---1---1---0---|
Play the last part twice


Thats it Enjoy

            
            
Suggest correction
Creating personal tab
Creating personal tab
You can edit any tab online and save it as your Personal.

You can edit, replace or remove any tab part or add personal notes – all changes will be seen only by you.

Personal tabs can be accessed anytime from any device, even offline.
Learn more »
Give kudos to tab author, rate the tab!
1 2 3 4 5
comments
print report bad tab
guest
You may want to rate the tab now too:
select rating
Wanna post a correction for this tab? Suggest correction