Oops, an error
Loading. Please wait.

Dorset Perception intro tab

version 1
version 1

Intro

Interactive

15,326 views 24 this week
2 commentsread comments
1 2 3 4 5
x 10
add to favorites
×
Save as Personal and add changes to this tab that will be seen only by you. Learn more ›
×
You can save this tab as Personal to edit and correct it or add notes. All changes will be seen only by you. Learn more »
launch autoscroll
font size
0
reset
how to read this tab
guitar tuner
edit
Autoscroll
slow
fast
+/-
esc
set tempo
stop
Author
Difficulty
Shpongle
Dorset Perception
www.shpongle.com

This is the intro only.  If anyone can help figure the solo please let me know.

e:------0-------0--|------0-------0--|------0-------0--|------0-------0--|
B:--5-------6-----6|--5-------3-----3|--5-------6-----6|--5-------3-----3|
G:----4-------5----|----4-------4----|----4-------5----|----4-------4----|
D:6-------7--------|6-------3--------|6-------7--------|6-------3--------|
A:-----------------|-----------------|-----------------|-----------------|
E:-----------------|-----------------|-----------------|-----------------|

            
            
Suggest correction
Creating personal tab
Creating personal tab
You can edit any tab online and save it as your Personal.

You can edit, replace or remove any tab part or add personal notes – all changes will be seen only by you.

Personal tabs can be accessed anytime from any device, even offline.
Learn more »
comments
print report bad tab
2 comments total.
0 reply
anarchomaniac 10 Jun 20, 2011 07:27 AM

The solo is an improvisation on the E Phrygian Dominant scale. This, I know for sure. I can't really be bothered to tab it out because I don't feel like sitting here sifting through a Shpongle track, but since it IS Shpongle, improvisation is encouraged anyway ;)

Learn the scale here: http://jguitar.com/scale?root=E&scale=Phrygian+Dominant&fret=5&labels=none¬es=sharps

Good luck.

0 reply
serbanmaierea 10 Jun 04, 2017 10:27 AM

I believe the last part is

e:-------0--|
B:---3-----3|
G:-----2----|
D:-3--------|
A:----------|
E:----------|

guest
You may want to rate the tab now too:
select rating
Wanna post a correction for this tab? Suggest correction