Oops, an error
Loading. Please wait.

Buzzin Bass Tab

version 2
version 2

Whole song

Interactive

4,302 views 1 this week
no commentswrite comment
1 2 3 4 5
please rate
add to favorites
launch autoscroll
font size
0
reset
guitar tuner
Autoscroll
slow
fast
+/-
esc
set tempo
stop
Help us to improve Ultimate-Guitar.com Take our survey!
×
Author
Difficulty
novice
-------------------------------------------------------------------------------
	                      Buzzin' - Shwayze
-------------------------------------------------------------------------------
Tabbed by:Sound Mind
Email:kagenecros@hotmail.com

Band:Shwayze
Song:Buzzin'
Album:Shwayze
Year:2008

Tuning:Standard

This is the bassline, ignore the top two strings (I forgot to take them off).

INTRO/CHORUS 1:

  Q.    E Q.    E  W                Q.    E Q.    E  W
e|----------------|----------------|----------------|----------------|
B|----------------|----------------|----------------|----------------|
G|----------------|----------------|----------------|----------------|
D|----------------|2---------------|----------------|2---------------|
A|3-----3-5-----5-|--------------3-|3-----3-5-----5-|--------------3-|
E|----------------|----------------|----------------|----------------|

  Q.    E Q.    E  W                Q.    E Q.    E  W
e|----------------|----------------|----------------|----------------|
B|----------------|----------------|----------------|----------------|
G|----------------|----------------|----------------|----------------|
D|----------------|5-----5-2-------|----------------|2---------------|
A|3-----3-5-----5-|----------------|3-----3-5-----5-|--------------3-|
E|----------------|----------------|----------------|----------------|


VERSE 1:

  Q.    E Q.    E  W                Q.    E Q.    E  W
e|----------------|----------------|----------------|----------------|
B|----------------|----------------|----------------|----------------|
G|----------------|----------------|----------------|----------------|
D|----------------|2---------------|----------------|2---------------|
A|3-----3-5-----5-|--------------3-|3-----3-5-----5-|--------------3-|
E|----------------|----------------|----------------|----------------|

  Q.    E Q.    E  W                Q.    E Q.    E  W
e|----------------|----------------|----------------|----------------|
B|----------------|----------------|----------------|----------------|
G|----------------|----------------|----------------|----------------|
D|----------------|5-----5-2-------|----------------|2---------------|
A|3-----3-5-----5-|----------------|3-----3-5-----5-|--------------3-|
E|----------------|----------------|----------------|----------------|

  W                W                W                E E E E
e|----------------|----------------|----------------|----------------|
B|----------------|----------------|----------------|----------------|
G|----------------|----------------|----------------|----------------|
D|----------------|5---------------|----------------|----------------|
A|3---------------|----------------|5---------------|5-5-5-5---------|
E|----------------|----------------|----------------|----------------|


CHORUS 2:

  Q.    E Q.    E  W                Q.    E Q.    E  W
e|----------------|----------------|----------------|----------------|
B|----------------|----------------|----------------|----------------|
G|----------------|----------------|----------------|----------------|
D|----------------|2---------------|----------------|2---------------|
A|3-----3-5-----5-|--------------3-|3-----3-5-----5-|--------------3-|
E|----------------|----------------|----------------|----------------|

  Q.    E Q.    E  W                Q.    E Q.    E  W
e|----------------|----------------|----------------|----------------|
B|----------------|----------------|----------------|----------------|
G|----------------|----------------|----------------|----------------|
D|----------------|5-----5-2-------|----------------|2---------------|
A|3-----3-5-----5-|----------------|3-----3-5-----5-|--------------3-|
E|----------------|----------------|----------------|----------------|



VERSE 2:
  Q.    E Q.    E  W                Q.    E Q.    E  W
e|----------------|----------------|----------------|----------------|
B|----------------|----------------|----------------|----------------|
G|----------------|----------------|----------------|----------------|
D|----------------|2---------------|----------------|2---------------|
A|3-----3-5-----5-|--------------3-|3-----3-5-----5-|--------------3-|
E|----------------|----------------|----------------|----------------|

  Q.    E Q.    E  W                Q.    E Q.    E  W
e|----------------|----------------|----------------|----------------|
B|----------------|----------------|----------------|----------------|
G|----------------|----------------|----------------|----------------|
D|----------------|5-----5-2-------|----------------|2---------------|
A|3-----3-5-----5-|----------------|3-----3-5-----5-|--------------3-|
E|----------------|----------------|----------------|----------------|

  W                W                W                E E E E E E E E
e|----------------|----------------|----------------|----------------|
B|----------------|----------------|----------------|----------------|
G|----------------|----------------|----------------|----------------|
D|----------------|5---------------|----------------|----------------|
A|3---------------|----------------|5---------------|5-5-5-5-5-5-5-5-|
E|----------------|----------------|----------------|----------------|


CHORUS 3:

  Q.    E Q.    E  W                Q.    E Q.    E  W
e|----------------|----------------|----------------|----------------|
B|----------------|----------------|----------------|----------------|
G|----------------|----------------|----------------|----------------|
D|----------------|2---------------|----------------|2---------------|
A|3-----3-5-----5-|--------------3-|3-----3-5-----5-|--------------3-|
E|----------------|----------------|----------------|----------------|

  Q.    E Q.    E  W                Q.    E Q.    E  
e|----------------|----------------|----------------|----------------|
B|----------------|----------------|----------------|----------------|
G|----------------|----------------|----------------|----------------|
D|----------------|5-----5-2-------|----------------|----------------|
A|3-----3-5-----5-|----------------|3-----3-5-----5-|----------------|
E|----------------|----------------|----------------|----------------|


VERSE 3:
  Q.    E Q.    E  W                Q.    E Q.    E  W
e|----------------|----------------|----------------|----------------|
B|----------------|----------------|----------------|----------------|
G|----------------|----------------|----------------|----------------|
D|----------------|2---------------|----------------|2---------------|
A|3-----3-5-----5-|--------------3-|3-----3-5-----5-|--------------3-|
E|----------------|----------------|----------------|----------------|

  Q.    E Q.    E  W                Q.    E Q.    E  W
e|----------------|----------------|----------------|----------------|
B|----------------|----------------|----------------|----------------|
G|----------------|----------------|----------------|----------------|
D|----------------|5-----5-2-------|----------------|2---------------|
A|3-----3-5-----5-|----------------|3-----3-5-----5-|--------------3-|
E|----------------|----------------|----------------|----------------|

  W                                 W                E E E E 
e|----------------|----------------|----------------|----------------|
B|----------------|----------------|----------------|----------------|
G|----------------|----------------|----------------|----------------|
D|----------------|----------------|----------------|----------------|
A|3---------------|----------------|5---------------|5-5-5-5---------|
E|----------------|----------------|----------------|----------------|


CHORUS 4:

  Q.    E Q.    E  W                Q.    E Q.    E  W
e|----------------|----------------|----------------|----------------|
B|----------------|----------------|----------------|----------------|
G|----------------|----------------|----------------|----------------|
D|----------------|2---------------|----------------|2---------------|
A|3-----3-5-----5-|--------------3-|3-----3-5-----5-|--------------3-|
E|----------------|----------------|----------------|----------------|

  Q.    E Q.    E  W                Q.    E Q.    E  W
e|----------------|----------------|----------------|----------------|
B|----------------|----------------|----------------|----------------|
G|----------------|----------------|----------------|----------------|
D|----------------|5-----5-2-------|----------------|2---------------|
A|3-----3-5-----5-|----------------|3-----3-5-----5-|--------------3-|
E|----------------|----------------|----------------|----------------|

  Q.    E Q.    E  W                Q.    E Q.    E  W
e|----------------|----------------|----------------|----------------|
B|----------------|----------------|----------------|----------------|
G|----------------|----------------|----------------|----------------|
D|----------------|2---------------|----------------|2---------------|
A|3-----3-5-----5-|--------------3-|3-----3-5-----5-|--------------3-|
E|----------------|----------------|----------------|----------------|

  Q.    E Q.    E  W                Q.    E Q.    E  W
e|----------------|----------------|----------------|----------------|
B|----------------|----------------|----------------|----------------|
G|----------------|----------------|----------------|----------------|
D|----------------|5-----5-2-------|----------------|2---------------|
A|3-----3-5-----5-|----------------|3-----3-5-----5-|--------------3-|
E|----------------|----------------|----------------|----------------|


OUTRO:

  Q.    E. E. Q    Q.    E. E. Q    Q.    E. E. Q    W 
e|----------------|----------------|----------------|----------------|
B|----------------|----------------|----------------|----------------|
G|----------------|----------------|----------------|----------------|
D|5---------------|5---------------|5---------------|----------------|
A|------3--3--3---|------3--3--3---|------3--3--3---|5---------------|
E|----------------|----------------|----------------|----------------|

| /  slide up
| \  slide down
| h  hammer-on
| p  pull-off
| ~  vibrato
| +  harmonic
| x  Mute note
===============================================================================
Suggest correction
Give kudos to tab author, rate the tab!
1 2 3 4 5
comments
print report bad tab
guest
You may want to rate the tab now too:
select rating
Wanna post a correction for this tab? Suggest correction