Oops, an error
Loading. Please wait.

Island In The Sun chords

4,624 views 3 this week
2 commentsread comments
1 2 3 4 5
x 4
add to favorites
×
Save as Personal and add changes to this tab that will be seen only by you. Learn more ›
×
You can save this tab as Personal to edit and correct it or add notes. All changes will be seen only by you. Learn more »
launch autoscroll
font size
0
reset
transpose
0
reset
display chords
guitar tuner
edit
Autoscroll
slow
fast
+/-
esc
set tempo
stop
Author
Difficulty
Strumming
There is no strumming pattern for this song yet. and get +5 IQ
Island in the Sun – Shwayze & Cisco

INTRO 0.00

Said it a million times, I hate to see you cryin'
I'd give a million lives to see you smilin'
If it were you and I stuck on an island
I think I'd be smiling

---------------------------------------------|
-----8-----10-----7-----5------8--7--5-------|
--7-----7------7-----5-----5-------------7---|      (x3)
---------------------------------------------|
---------------------------------------------|
---------------------------------------------|

-----------------------------7---|
-----8----10-----7---5---8-------|
--7----7------7------5-----------|       (x1)
---------------------------------|
---------------------------------|
---------------------------------|


VERSE 1 0.19

Yo, if it were just you and I
Play the best of Bob Marley, no woman no cry
I make a guitar out of palm trees
In case you crash-landed and you couldn't find your iPod
Make a wish upon a starfish, kiss under the waterfall, coconut sidedish
Like paradise lost, but now I'm found

---------------------------------------------|
-----8-----10-----7-----5------8--7--5-------|
--7-----7------7-----5-----5-------------7---|      (x1)
---------------------------------------------|
---------------------------------------------|
---------------------------------------------|

------------------------------7---|
-----8----10-----7---5---8--------|
--7----7------7------5------------|            (x1)
----------------------------------|           
----------------------------------|
----------------------------------|

--------------------------------------------|
-----8-----10-----7-----5------8--7--5------|
--7-----7------7-----5-----5------------7---|      (x1)
--------------------------------------------|
--------------------------------------------|
--------------------------------------------|

-----------------------------7---|
-----8----10-----7---5---8-------|
--7----7------7------5-----------|            (x1)
---------------------------------|           
---------------------------------|
---------------------------------|


PRE-CHORUS 0.39

G                   D               Am    Em       
Everytime you get a little bit closer you drift so far away

G                   D                     Am             Em
Everytime you get a little bit closer you leave me right here

G                   D               Am    Em
Everytime you get a little bit closer you drift so far away

G                   D                     Am             Em
Everytime you get a little bit closer you leave me right here


CHORUS 0.58

G                       D      Am
Like an island in the sun, I'm waiting patiently

G             D     Am      C
Waiting for you, to land on me

G                       D    Am
Like an island in the sun, I guess I wait and see

G             D     Am      C
Waiting for you, to land on me


VERSE 2 1.18

Collecting seashells on the seafloor
Smoke a lil' seaweed on the seashore
Just me and you, we don't need more
Except the sun and the stars and the wind and the mountains
See I'm a real hippie kid so just the two us is something I could dig
Building castles in the sky, building castles in the sky

---------------------------------------------|
-----8-----10-----7-----5------8--7--5-------|
--7-----7------7-----5-----5-------------7---|      (x3)
---------------------------------------------|
---------------------------------------------|
---------------------------------------------|

-----------------------------7---|
-----8----10-----7---5---8-------|
--7----7------7------5-----------|        (x1)
---------------------------------|
---------------------------------|
---------------------------------|


PRE-CHORUS 1.39

G                   D               Am    Em
Everytime you get a little bit closer you drift so far away

G                   D                     Am             Em
Everytime you get a little bit closer you leave me right here

G                   D               Am    Em
Everytime you get a little bit closer you drift and drift and drift

G                   D                     Am             Em
Everytime you get a little bit closer you leave me right here


CHORUS 1.57

G                       D      Am
Like an island in the sun, I'm waiting patiently

G             D     Am      C
Waiting for you, to land on me

G                       D    Am
Like an island in the sun, I guess I wait and see

G             D     Am      C
Waiting for you, to land on me


BRIDGE 2.16

Em                  G                C    D
Everytime you get a little bit closer you drift so far away

Em                  G                     C            D
Everytime you get a little bit closer you drift so far away

Em                  G                C    D
Everytime you get a little bit closer you drift so far away

Em                  G                C    D
Everytime you get a little bit closer you leave me right here



PRE-CHORUS 2.36

G                          D
Just steer the boat, but I dont know where to go

Am                            C
My compass is broke, lost the map a long time ago

G                   D                     Am           Em           
Everytime you get a little bit closer you drift so far away

G  D  Am   C
Aah oooh yeah

G              D               Am         C
Baby baby baby baby baby I'm a lonely one


CHORUS 2.56

G                       D      Am
Like an island in the sun, I'm waiting patiently

G             D     Am      C
Waiting for you, to land on me

G                       D    Am
Like an island in the sun, I guess I wait and see

G             D     Am      C
Waiting for you, to land on me


G                       D      Am
Like an island in the sun, I'm waiting patiently

G             D     Am      C
Waiting for you, to land on me

G                       D    Am
Like an island in the sun, I guess I wait and see

G             D     Am      C
Waiting for you, to land on me


(The times referred to in this tab link to: http://www.youtube.com/watch?v=Bl1eane8Nos)

            
            
Suggest correction
Creating personal tab
Creating personal tab
You can edit any tab online and save it as your Personal.

You can edit, replace or remove any tab part or add personal notes – all changes will be seen only by you.

Personal tabs can be accessed anytime from any device, even offline.
Learn more »
comments
print report bad tab
2 comments total.
0 reply
jakepetre 10 Aug 31, 2015 08:32 AM

capo on 7th for chords

0 reply
tibblesnbits5 358 Mar 22, 2016 05:27 PM

---------------------------------------------|
-----8-----10-----7-----5------8--7--5-------|
--7-----7------7-----5-----5-------------7---| (x3)
---------------------------------------------|
---------------------------------------------|
---------------------------------------------|

---------------------------------------------7-----|
-----8----8h10p8--7h8p7----------5---/8--/10---8---|
--7----7----------------7------5-----/7------------| (x1)
---------------------------5h7---------------------|
---------------------------------------------------|
---------------------------------------------------|

guest
You may want to rate the tab now too:
select rating
Wanna post a correction for this tab? Suggest correction