Oops, an error
Loading. Please wait.

Summer Tab

221 views 1 this week
no commentswrite comment
1 2 3 4 5
please rate
add to favorites
launch autoscroll
font size
0
reset
how to read this tab
guitar tuner
Autoscroll
slow
fast
+/-
esc
set tempo
stop
Help us to improve Ultimate-Guitar.com Take our survey!
×
Difficulty
novice
Official site: http://www.myspace.com/shychildmusic (with link to label)

Translated into guitar.

Basically,

INTRO

E|----------------------------------------|
B|--3-3-3-3-------------------------------| repeat until >
G|--3-3-3-3-------------------------------|
D|----------------------------------------|
A|----------------------------------------|
E|----------------------------------------|

Throughout the rest of the song it's a combination of:

E|----------------------------------------|
B|--3---3---3-----------------------------| [repeat]
G|--3---0---2-----------------------------|
D|----------------------------------------|
A|----------------------------------------|
E|----------------------------------------|

- usually in that order, but I believe it may vary, slightly, once or twice. The only 
you'll learn how many times the notes are struck, is to listen, and play along.

visire@gmail.com
Suggest correction
Give kudos to tab author, rate the tab!
1 2 3 4 5
comments
print report bad tab
guest
You may want to rate the tab now too:
select rating
Please do not post tabs as comments. Select "correction" instead!