Oops, an error
Loading. Please wait.

10 Minutos Bass Tab

198 views 1 this week
no commentswrite comment
1 2 3 4 5
3 more votes to show rating
add to favorites
launch autoscroll
font size
0
reset
guitar tuner
×
Best way to learn
"10 Minutos"
Autoscroll
slow
fast
+/-
esc
set tempo
stop
INTRO
|--4h54--4h5--5---------------------
|-------------------5----------------
|-------------------------5-----------
|----------------3-----3--------------
VERSO 1
|------------------------------------
|------------------------------------SABES MXAS COSAS......
|---5--------------------------------
|------5--10--5--7--5----------------
CORTE
VERSO 2
|--------------------------------
|--------------------------------
|--5-------------5-4-2---77975---
|-----3---5----------------------
SOLO 1(priemra        version)
|-----------------------------------------
|--12*-12*-12-14*-141617--19 17-19-17-----
|-----------------------------------------
|-----------------------------------------
SOLO2
|-----------------------------------------
|--12*-12*-12-14*-141617--19 SOANDO --19(DOWN)
|-----------------------------------------
|-----------------------------------------
(sEGUNDA VERSION)
 SOLO1
|------------------------------------------
|--------------44-4H5-7-5-7-5--------------
|--5555-5H77-7H----------------------------
|------------------------------------------
 SOLO2
|------------------------------------------
|--------------44-4H5-7(SONANDO)-7(DOWN)---
|--5555-5H77-7H----------------------------
|------------------------------------------

SE REPITE
VERSO 1
VERSO 2
SOLO1

|------------------------------------------
|--------------44-4H5--5P7----5P7----------
|--5555-5H77-7H------------5-------5-------
|------------------------------------------

|-------------------------------
|-------------------------------
|---------555555----------------
|----3333-----------------------

|----------------------------------------------
|----------------------------------------------AMARILLO POLVORIENTO...2X
|---55555-----------------------------10--9--7-
|----------777777----333333--55555-------------

|--------------------------------------------------
|--------------------------------------------------DIEZ MIN...3X
|-----------------4-5-7----------------------------
|---777777-55555-----------------------------------

|---------------------------------------------------------
|---------------------------------------------------------
|--------------------10-9-7--------9-7-5------------------
|--77777-5555---777----------5555-------------333333333---

|--------------------------------------------
|--------------------------------------------
|-----5555---------------------------4-5-7---HASTA EL FINAL
|-----------77777---33333----55555-----------
Suggest correction
Give kudos to tab author, rate the tab!
1 2 3 4 5
comments
print report bad tab
guest
You may want to rate the tab now too:
select rating
Wanna post a correction for this tab? Suggest correction