Oops, an error
Loading. Please wait.

Breathe Me Tab

version 1
version 1

Intro

Whole song

Interactive

by Sia
57,126 views 33 this week
1 commentread comment
1 2 3 4 5
x 51
add to favorites
launch autoscroll
font size
0
reset
how to read this tab
guitar tuner
×
Best way to learn
"Breathe Me"
Autoscroll
slow
fast
+/-
esc
set tempo
stop
Difficulty
novice
[Intro]
          Am                                C                           
e|--------------------------------------------------------------0-------0-|
B|-------1-------1---------1--------1---------1---------1-----------------|
G|----2------2--------2---------2--------0---------0--------0-------0-----|
D|------------------------------------------------------------------------|
A|------------------------------------------------------------------------|
E|------------------------------------------------------------------------|

               F                           
e|---------------------------3------3----------3--------3-----------------|
B|-------1-------1--------------------------------------------------------|
G|------------------------------------------------------------------------|
D|----3--------3--------3---------3--------3----------3-------------------|
A|------------------------------------------------------------------------|
E|------------------------------------------------------------------------|
Suggest correction
comments
print report bad tab
1 comment total.
0 reply
Yap 30 Oct 13, 2009 12:03 AM

goodtab

guest
You may want to rate the tab now too:
select rating
Wanna post a correction for this tab? Suggest correction