Oops, an error
Loading. Please wait.

Breathe Me Tab

version 3
version 3

Whole song

Interactive

by Sia
4,395 views 1 this week
no commentswrite comment
1 2 3 4 5
please rate
add to favorites
launch autoscroll
font size
0
reset
how to read this tab
guitar tuner
Autoscroll
slow
fast
+/-
esc
set tempo
stop
Help us to improve Ultimate-Guitar.com Take our survey!
×
Author
Difficulty
satopaa 39
intermediate
----------------------------------------------------------------------
                                  Breathe Me - Sia
----------------------------------------------------------------------
Tabbed by: J. Satopaa
Tuning: standard EADGbe

Chords:

Am    |x00210|
C/G   |3x2010|
F     |133211|
Fmaj7 |1x3210|
Fadd9 |1x3213|

The whole song follows the same scheme.

 Am               C/G              F       Fmaj7    Fadd9   
|----------------|----------------|----------0---0-|--3---3---3---3-|
|--1---1---1---1-|--1---1---1---1-|--1---1---1---1-|--1---1---1---1-|
|2---2---2---2---|0---0---0---0---|2---2---2---2---|2---2---2---2---|
|----------------|--------2---2---|-------(3)-(3)--(3)-(3)-(3)-(3)--|
|0---0---0---0---|----------------|----------------|----------------|
|----------------|3---3---3---3---|1---1---1---1---|1---1---1---1---|


Help, I have done it again
I have been here many times before
Hurt myself again today
And, the worst part is there's no-one else to blame

Be my friend
Hold me, wrap me up
Unfold me
I am small
and needy
Warm me up
And breathe me

Ouch I have lost myself again
Lost myself and I am nowhere else to be found,
Yeah I think that I might break
Lost myself again and I feel unsafe

Chorus

Be my friend
Hold me, wrap me up
Unfold me
I am small
and needy
Warm me up
And breathe me



Outro:

|----------------|----------------|0---------------|----------------|
|--0-1-3-1-0---0-|1-3-1-0---0-1-3-|--1-3-0-1---0---|--0-1-3-1-0---0-|
|2-----------2---|--------2-------|2---2-----2---0-|2-----------2---|
|----------------|2---2---2---2---|----------------|----------------|
|0---0---0---0---|----------------|----------------|----------------|
|----------------|3---3---3---3---|1---1---1---1---|1---1---1---1---|


|----------------|0---------------|----------------|----------------|
|1-3-1-0---0-1-3-|--1-3-0-1---0---|--0-1-3-1-0---0-|1-3-1-0---0-1-3-|
|--------2-------|----------2---0-|2-----------2---|--------2-------|
|----------------|2---2---2---2---|----------------|----------------|
|0---0---0---0---|----------------|----------------|----------------|
|----------------|3---3---3---3---|1---1---1---1---|1---1---1---1---|


|0---------------|----------------|----------------|0---------------|
|--1-3-0-1---0---|--0-1-3-1-0---0-|1-3-1-0---0-1-3-|--1-3-0-1---0---|
|----------2---0-|2-----------2---|--------2-------|----------2---0-|
|----------------|2---2---2---2---|----------------|----------------|
|0---0---0---0---|----------------|----------------|----------------|
|----------------|3---3---3---3---|1---1---1---1---|1---1---1---1---|


|----------------|----------------|0---------------|----------------|
|--0-1-3-1-0---0-|1-3-1-0---0-1-3-|--1-3-0-1---0---|----------------|
|2-----------2---|--------2-------|2---2-----2---0-|2---------------|
|----------------|2---2---2---2---|----------------|----------------|
|0---0---0---0---|----------------|----------------|----------------|
|----------------|3---3---3---3---|1---1---1---1---|1---------------|
Suggest correction
What's this?
You can suggest a correction to this tab. Community and Mods will review your correction and vote to approve or reject it.
comments
We did not receive enough feedback on this tab! Please rate:
print report bad tab
1 2 3 4 5
guest
You may want to rate the tab now too:
select rating
Please do not post tabs as comments. Select "correction" instead!