Oops, an error
Loading. Please wait.

Bring Night Tab

by Sia
7,432 views 3 this week
1 commentread comment
1 2 3 4 5
excellent!
x 4
add to favorites
launch autoscroll
font size
0
reset
how to read this tab
guitar tuner
Autoscroll
slow
fast
+/-
esc
set tempo
stop
Help us to improve Ultimate-Guitar.com Take our survey!
×
Difficulty
intermediate
Artist: Sia
Song: Bring night
Album: We Are Born

Chords:
F5 : xx35xx
D5 : x57xxx
C#5: x46xxx
A# : 688766
Dm : x57765
C  : 8[10][10]988
F  : 133211


Intro: 
    F5              D5            C#5             D5
e|-----------------------------------------------------------------|
B|-----------------------------------------------------------------|
G|------5-------5--------------------------------------------------|
D|--3-3---3-3-3--3-----7-------7-------6------6------7-------7-----|
A|-----------------5-5---5-5-5--5-4-4---4-4-4--4-5-5---5-5-5---5---|
E|-----------------------------------------------------------------|


F5           D5                          C#5                         D5
Bring Night! Bring the night on! Bring a little bit of dance bring a little bit of song! Yea!

F5           D5                          C#5                          D5
Bring Night! Bring the night on! I'm not sure i can wait and this day has felt so long. Yea.

F5           D5                          C#5                          D5
Bring Night! Bring the night on! The music cuts into me and i know it can't be wrong. Yea

F5           D5                          C#5                          D5
Bring Night! Bring the night on! Cuz all that we are after is alittle bit of fun. Yea

A#         Dm      C       F             A#         Dm      C       F
Chase your shadow til the sun goes down. Chase your shadow til the sun goes down.

A#           Dm                   C                    F
Ooohh oooohh whoooa ohhhh whoooa, Ooohh oooohh whoooa ohhhhoohoo

A#           Dm                   C                    F
Ooohh oooohh whoooa ohhhh whoooa, Ooohh oooohh whoooa ohhhhoohoo


Bridge:

    F5              D5            C#5             D5
e|-----------------------------------------------------------------|
B|-----------------------------------------------------------------|
G|------5-------5--------------------------------------------------|
D|--3-3---3-3-3--3-----7-------7-------6------6------7-------7-----|
A|-----------------5-5---5-5-5--5-4-4---4-4-4--4-5-5---5-5-5---5---|
E|-----------------------------------------------------------------|


F5           D5                          C#5                          D5
Bring Night! Bring the night on! Bring me the moon and stars and send away the sun.Yea

F5           D5                          C#5                          D5
Bring Night! Bring the night on! Or maybe if i'm lucky i'll end up in your arms.

A#         Dm      C       F             A#         Dm      C       F
Chase your shadow til the sun goes down! Chase your shadow til the sun goes down!


A#           Dm                   C                    F
Ooohh oooohh whoooa ohhhh whoooa, Ooohh oooohh whoooa ohhhhoohoo

A#           Dm                   C                    F
Ooohh oooohh whoooa ohhhh whoooa, Ooohh oooohh whoooa ohhhhoohoo


Solo:
e|-------------------------------------------------------17-15-----|
B|-15-15-15-15-18-17-15-----------15-15-15-15-18-17-15---------18--|
G|---------------------17-14---------------------------17----------|
D|---------------------------17-15---------------------------------|
A|-----------------------------------------------------------------|
E|-----------------------------------------------------------------|


e|-------------------------------------------------------17-15-----|
B|-15-15-15-15-18-17-15-----------15-15-15-15-18-17-15---------18--|
G|---------------------17-14---------------------------17----------|
D|---------------------------17-15---------------------------------|
A|-----------------------------------------------------------------|
E|-----------------------------------------------------------------|


A#         Dm      C       F             A#         Dm      C       F
Chase your shadow til the sun goes down! Chase your shadow til the sun goes down!


A#         Dm      C       F             A#         Dm      C       F
Chase your shadow til the sun goes down! Chase your shadow til the sun goes down!

A#         Dm      C       F             A#         Dm      C       F
Chase your shadow til the sun goes down! Chase your shadow til the sun goes down!


A#         Dm      C       F             A#         Dm      C       F
Chase your shadow til the sun goes down! Chase your shadow til the sun goes down!


A#           Dm                   C                    F
Ooohh oooohh whoooa ohhhh whoooa, Ooohh oooohh whoooa ohhhhoohoo

A#           Dm                   C                    F
Ooohh oooohh whoooa ohhhh whoooa, Ooohh oooohh whoooa ohhhhoohoo


F5           D5  
Bring Night! Bring the night on!




-Tabbed by FinnderS:)
Suggest correction
What's this?
You can suggest a correction to this tab. Community and Mods will review your correction and vote to approve or reject it.
comments
print report bad tab
1 comment total.
0 reply
fisu00 11 wrote on May 29 2010, 07:55 pm

Just swell. FinnderS ftw

guest
You may want to rate the tab now too:
select rating
Please do not post tabs as comments. Select "correction" instead!