Oops, an error
Loading. Please wait.

Butterflies Tab

version 2
version 2

Whole song

by Sia
4,202 views 1 this week
no commentswrite comment
1 2 3 4 5
please rate
add to favorites
launch autoscroll
font size
0
reset
how to read this tab
guitar tuner
Autoscroll
slow
fast
+/-
esc
set tempo
stop
Help us to improve Ultimate-Guitar.com Take our survey!
×
Author
Difficulty
novice
-------------------------------------------------------------------------------
                             BUTTERFLIES - Sia
-------------------------------------------------------------------------------
Tabbed by: Kaela Hall (idontloveyou)
Email: succubus.x@hotmail.com

This is my first tab on here, so, uh, if it looks funky, then well. There you go.

Tuning: Standard (EADGBe)

e|-------------------------------3-------1-----0-----------------------------|
B|------1-----1------1-----1-------1-------1-----1-------5-----------3-------|
G|--------2------------2-------------2-------2-----2-------5---5-------3---3-|
D|---2------2------2-----2-----2-----------------------5-----5-----3-----3---|
A|-0-------------0-----------0---------0-------------3-----------1-----------|
E|---------------------------------------------------------------------------|
                                                         4x
e||------3-------1------0----------------------------------|-----------------|
B||--------1-------1------1----------5------------3--------|-----------------|
G||o----------2-------2------2----------5---5--------3---3o|-----------------|
D||o----2----------------------------5----5------3-----3--o|-----------------|
A||---0-------0-----------------3------------1-------------|---0-0-----------|
E||--------------------------------------------------------|-----------------|
   Chorus                               4x
e|----------------------------------------|----------------------------------|
B|--------------------------1--------1----|----------------------------------|
G|------2----------1----------2--------2-o|----------------------------------|
D|--------3----------2----2--------2-----o|----------------------------------|
A|----3---------2-------0-------0---------|---0-0~---------------------------|
E|--1--------0----------------------------|----------------------------------|

Then you repeat it until it's done, really.
I am not helpful at all. There's your notes. Run with it.

| /  slide up
| \  slide down
| h  hammer-on
| p  pull-off
| ~  vibrato
| +  harmonic
| x  Mute note
============================================================================
Suggest correction
Give kudos to tab author, rate the tab!
1 2 3 4 5
comments
print report bad tab
guest
You may want to rate the tab now too:
select rating
Wanna post a correction for this tab? Suggest correction