Oops, an error
Loading. Please wait.

Buttons Bass Tab

by Sia
7,037 views 1 this week
no commentswrite comment
1 2 3 4 5
accurate
x 4
add to favorites
launch autoscroll
font size
0
reset
guitar tuner
Autoscroll
slow
fast
+/-
esc
set tempo
stop
Help us to improve Ultimate-Guitar.com Take our survey!
×
Author
Difficulty
intermediate
Buttons by Sia
Bass Tab by Quillo

Standard Tuning

Intro
G|------------------------------------------------------|
D|------------------0-1--1--3---------------------------|
A|-3--3--3-3-2-1--1----------------------------2--2-3-2-|
E|----------------------------1--1--1-1-3-4--4----------| x5

“Yes, I see open wounds…”
G|------------------------------------------------------|
D|------------------0-1--1--3---------------------------|
A|-3--3--3-3-2-1--1----------------------------2--2-----|
E|----------------------------1--1--1-1-3-4--4----------|

Chorus

G|----------------------|
D|-3~----1~----/6~--8~--|
A|----------------------|
E|----------------------| x2

G|------------------------------------|
D|------------------------------------|
A|------------------11111111/44443333-|
E|-11111111/44444444------------------|

G|------------------------------------|
D|------------------------------------|
A|------------------11111111/44446666-|
E|-11111111/44444444------------------|

Verse
G|------------------------------------------------------|
D|------------------0-1--1--3---------------------------|
A|-3--3--3-3-2-1--1----------------------------2--2-3-2-|
E|----------------------------1--1--1-1-3-4--4----------| x3

“Can’t you see that I am…”
G|------------------------------------------------------|
D|------------------0-1--1--3---------------------------|
A|-3--3--3-3-2-1--1----------------------------2--2-----|
E|----------------------------1--1--1-1-3-4--4----------|

G|----------------------|
D|-3~----1~----/6~--8~--|
A|----------------------|
E|----------------------| x2

G|----5---5---8---8--------------------|
D|--33-333-366-666-688888888---6-------|
A|--------------------------444-3333---|
E|-------------------------------------|

G|----5---5---8---8---10---10----6---8\-|
D|--33-333-366-666-688--888--8--6---8---|
A|-----------------------------4--46----|
E|--------------------------------------|

Rest for 2x Verse

G|------------------------------------------------------|
D|------------------0-1--1--3---------------------------|
A|-3--3--3-3-2-1--1----------------------------2--2-3-2-|
E|----------------------------1--1--1-1-3-4--4----------|

G|------------------------------------------------------|
D|------------------0-1--1--3---------------------------|
A|-3--3--3-3-2-1--1----------------------------2--2-----|
E|----------------------------1--1--1-1-3-4--4----------|

G|----------------------------------|
D|-----------011113-----------------|
A|-3333332111-----------------22222-|
E|-----------------11111134444------|

G|-----------------------------------|
D|-----------011113------------------|
A|-3333332111-----------------222223-|
E|-----------------11111134444-------|
Suggest correction
comments
print report bad tab
guest
You may want to rate the tab now too:
select rating
Wanna post a correction for this tab? Suggest correction