Oops, an error
Loading. Please wait.

Buttons Tab

version 1
version 1

Whole song

by Sia
1,189 views 1 this week
no commentswrite comment
1 2 3 4 5
please rate
add to favorites
launch autoscroll
font size
0
reset
how to read this tab
guitar tuner
Tab Pro tools
  • play this tab
  • loop segment
  • change instrument
  • show fretboard
  • metronome
×
Best way to learn
"Buttons"
Autoscroll
slow
fast
+/-
esc
set tempo
stop
Difficulty
novice
Buttons By Sia
Standard Tuning
Tabbed by Nick Kelly
Probably not perfect but none of the other tabs sounded right to me.

                  Intro
E||-------------------------------------------------|
B||-------------------------------------------------|
G||-------------------------------------------------| repeat 6x
D||------------------5-555s--7-7-77-----------------|
A||--3-3-333s---5-55-----------------5s-888--5-5----|
E||-------------------------------------------------|

                  Chorus               
       F5        D#5      G#5     A#5
E||-------------------------------------------------|
B||-------------------------------------------------|
G||--10-10-10---8-8-8-------------------------------| repeat 2x
D||--10-10-10---8-8-8---6-6-6s---6-6----------------| 
A||--8--8--8----6-6-6---6-6-6s---6-6----------------|
E||---------------------4-4-4s---8-8----------------|
       F5     G#5    A#5     C#5     C5
E||-------------------------------------------------|
B||-------------------------------------------------|
G||--10------13------15-----------------------------| repeat 2x
D||--10 x8---13-x8---15-x8---11------10-------------| 
A||--8-------11------13------11-x4---10-x4----------|
E||--------------------------9-------8--------------|

     Back to Intro

     End on C
comments
We did not receive enough feedback on this tab! Please rate:
print report bad tab
1 2 3 4 5
I want to post or [tab]
guest
You may want to rate the tab now too:
select rating
Please do not post tabs as comments. Select "correction" instead!