Oops, an error
Loading. Please wait.

Cheap Thrills bass

by Sia
5,141 views 27 this week
no commentswrite comment
1 2 3 4 5
x 4
add to favorites
×
Save as Personal and add changes to this tab that will be seen only by you. Learn more ›
×
You can save this tab as Personal to edit and correct it or add notes. All changes will be seen only by you. Learn more »
launch autoscroll
font size
0
reset
guitar tuner
edit
Autoscroll
slow
fast
+/-
esc
set tempo
stop
Sia ft. Sean Paul - Cheap Thrills
Bass Tab
Tuning: Drop D

Listen to the song for timing. 
Cover: https://www.youtube.com/watch?v=cCVBtRlwJdE

No Intro

[Verse] [00:21]
"Til' I hit the dance floor"

G|----------------------|----------------------|
D|----------------------|----------------------|
A|----------------------|----------------------|
D|4--4-0--4--0--0-0--0--|7--7-0--7--6--6-0--6--|

G|----------------------|----------------------|
D|----------------------|----------------------|
A|----------------------|----------------------|
D|4--4-0--4--0--0-0--0--|7---------------------|




[Chorus] [00:33]
"Baby I don't need no dollar bills..."

G|----------------------|----------------------|
D|----------------------|----------------------|
A|----------------------|----------------------|      Play x6
D|4--4-0--4--0--0-0--0--|7--7-0--7--6--6-0--6--|




[Verse] [01:15]
"Til' I hit the dance floor"

G|----------------------|----------------------|
D|----------------------|----------------------|
A|----------------------|----------------------|
D|4--4-0--4--0--0-0--0--|7--7-0--7--6--6-0--6--|

G|----------------------|----------------------|
D|----------------------|----------------------|
A|----------------------|----------------------|
D|4--4-0--4--0--0-0--0--|7---------------------|




[Chorus] [01:26]
"Baby I don't need no dollar bills..."

G|----------------------|----------------------|
D|----------------------|----------------------|
A|----------------------|----------------------|      Play x6
D|4--4-0--4--0--0-0--0--|7--7-0--7--6--6-0--6--|




[Bridge] [01:58] [No bass, however I like to play the riff here]
"Me an you gurl, you an me"

G|----------------------|----------------------|
D|----------------------|----------------------|
A|----------------------|----------------------|      Play x5
D|4--4-0--4--0--0-0--0--|7--7-0--7--6--6-0--6--|

G|----------------------|----------------------|
D|----------------------|----------------------|
A|----------------------|----------------------|     
D|4--4-0--4--0--0-0--0--|7---------------------|




[Chorus] [02:40]
"Baby I don't need no dollar bills..."

G|----------------------|----------------------|
D|----------------------|----------------------|
A|----------------------|----------------------|      Play x4
D|4--4-0--4--0--0-0--0--|7--7-0--7--6--6-0--6--|

G|----------------------|----------------------|
D|----------------------|----------------------|
A|-----------7--7-7--7--|----------------------|    
D|4--4-0--4-------------|7--7-0--7--6--6-0--6--|

G|----------------------|----------------------|
D|----------------------|----------------------|
A|----------------------|----------------------| 
D|4--4-0--4--0--0-0--0--|7--7-0--7--6--6-0--6--|




[Outro] [03:13] [Again, no bass, but I like to play until the last bar.]
"La la la..."

G|----------------------|----------------------|
D|----------------------|----------------------|
A|----------------------|----------------------|      Play x3
D|4--4-0--4--0--0-0--0--|7--7-0--7--6--6-0--6--|


Suggest correction
Creating personal tab
Creating personal tab
You can edit any tab online and save it as your Personal.

You can edit, replace or remove any tab part or add personal notes – all changes will be seen only by you.

Personal tabs can be accessed anytime from any device, even offline.
Learn more »
comments
print report bad tab
guest
You may want to rate the tab now too:
select rating
Wanna post a correction for this tab? Suggest correction