Oops, an error
Loading. Please wait.

Cheap Thrills tab

version 1
version 1

Whole song

by Sia
19,492 views 204 this week
2 commentsread comments
1 2 3 4 5
x 5
add to favorites
×
Save as Personal and add changes to this tab that will be seen only by you. Learn more ›
×
You can save this tab as Personal to edit and correct it or add notes. All changes will be seen only by you. Learn more »
launch autoscroll
font size
0
reset
how to read this tab
guitar tuner
edit
Autoscroll
slow
fast
+/-
esc
set tempo
stop
Author
Difficulty
Vocals
if you need to look at timing then ove done a cover based on this song https://youtu.be/toPpEFo5YRU

[Verse 1]

E|-------------------------------------------------------------------------------------------|
B|-------------------------------------------------------------------------------------------|
G|-------------------------------------------------------------------------------------------|
D|-------------------4-4--2-2--2-2--2-2-4-2--2---------------------4-4--2-2--2-2--2-2-4-2--2-|
A|-2h4--2h4--2h4-2h4-----------------------------2h4--2h4--2h4-2h4---------------------------|
E|-------------------------------------------------------------------------------------------|


[Pre-Chorus]

E|------------------------------------|  |-----------------------------------|
B|------------------------------------|  |-----------------------------------|
G|---1-2-2/4-1--2-2-2/4-1--2-2-2------|  |--1-2-------------------1----------|
D|-4-----------------------------2--2-|x2|-4----4--4-4-4-4--4-4-2---4--2-2---|
A|------------------------------------|  |-----------------------------------|
E|------------------------------------|  |-----------------------------------|


[Chorus]

E|-----------------------------------------------|
B|-----------------------------------------------|
G|-------1-2-1-1h2p1------------------1-2-1------|
D|-----4-------------4--------------4-------4----|
A|-4-4-----------------4---\2---4-4-----------4--|
E|-----------------------------------------------|


[Chords]

E|-------------------------------|
B|-------------------------------|
G|-------------------------------|
D|--------7--7-7-----------------|
A|-4--4-4-5--5-5-3--3-3--2--2-2--|
E|-2--2-2--------5--5-5--0--0-0--|

Then at second time build up to full chords

Fm   D   A   E


[Backing]

E|-------------------------------------------------|
B|-10-10--10-9-10--10--10-9-10--10--10-9-9--7-9-10-|
G|-------------------------------------------------|
D|-------------------------------------------------|
A|-------------------------------------------------|
E|-------------------------------------------------|



************************************

| x  Dead note
| h  Hammer-on
| p  Pull-off
| /  Slide up
| \  Slide down
|    

************************************
Suggest correction
Creating personal tab
Creating personal tab
You can edit any tab online and save it as your Personal.

You can edit, replace or remove any tab part or add personal notes – all changes will be seen only by you.

Personal tabs can be accessed anytime from any device, even offline.
Learn more »
comments
print report bad tab
2 comments total.
-1 reply
pijush1debbarma 10 May 16, 2017 09:07 PM

i want interactive tab

guest
You may want to rate the tab now too:
select rating
Wanna post a correction for this tab? Suggest correction