Oops, an error
Loading. Please wait.

Clap Your Hands bass

version 1
version 1

Whole song

  • Simplest possible bass line for this song.

Interactive

by Sia
577 views 6 this week
1 commentread comment
1 2 3 4 5
1 last vote to show rating
add to favorites
×
Save as Personal and add changes to this tab that will be seen only by you. Learn more ›
×
You can save this tab as Personal to edit and correct it or add notes. All changes will be seen only by you. Learn more »
launch autoscroll
font size
0
reset
guitar tuner
edit
Autoscroll
slow
fast
+/-
esc
set tempo
stop
Author
Difficulty
About this tab version
Simplest possible bass line for this song. Was this info helpful? Yes No
All of the 4 note sequences on the A string are played consecutively and faster than the notes on the E string
UPDATE: This should be the FULL tab with ALL notes.
Count: 1 + 2 + 3 + 4 +

[Verse]

"I've been neglecting the good things..."

G|---------------|---------------|---------------|---------------|
D|---------------|---------------|---------------|---------------|
A|-------7-5-3-5-|-----7---------|-------5-3-0-3-|-----3---------| x4
E|-5-5-5---------|-5-5---5-3-----|-1-1-1---------|-1-1---1-3-----|

[Pre-Chorus]

"Oh shake me out of my misery..."

G|---------------|----------------|--------------|---------------|
D|---------------|----------------|--------------|---------------|
A|-8-------------|----------------|-3------------|---------------|
E|---------------|--3-------------|--------------|-5-------------|

G|---------------|----------------|--------------|---------------|
D|---------------|----------------|--------------|---------------|
A|-8-------------|----------------|-3------------|-7-------------|
E|---------------|--3-------------|--------------|---------------|


[Chorus]

"Oh clap your hands..."

G|---------------|---------------|---------------|---------------|
D|---------------|---------------|---------------|---------------|
A|-------7-5-3-5-|-----5---2-----|-3-3-3-7-5-3-5-|-----3---------| x4
E|-5-5-5---------|-3-3---3-------|---------------|-1-1---1-3-----|

[Interlude]

G|---------------|---------------|---------------|---------------|
D|---------------|---------------|---------------|---------------|
A|-------7-5-3-5-|-------3-------|-------5-3-0-3-|-------3-------|
E|-5-5-5---------|-5-5-5---------|-1-1-1---------|-1-1-1---------|

[Verse]

"I'm trying to fly with the good things..."

G|---------------|---------------|---------------|---------------|
D|---------------|---------------|---------------|---------------|
A|-------7-5-3-5-|-----7---------|-------5-3-0-3-|-----3---------| x2
E|-5-5-5---------|-5-5---5-3-----|-1-1-1---------|-1-1---1-3-----|


[Pre-chorus]

"Oh shake me out of my misery..."

G|---------------|----------------|--------------|---------------|
D|---------------|----------------|--------------|---------------|
A|-8-------------|----------------|-3------------|---------------|
E|---------------|--3-------------|--------------|-5-------------|

G|---------------|----------------|--------------|---------------|
D|---------------|----------------|--------------|---------------|
A|-8-------------|----------------|-3------------|-7-------------|
E|---------------|--3-------------|--------------|---------------|

[Chorus]

"Oh clap your hands..."

G|---------------|---------------|---------------|---------------|
D|---------------|---------------|---------------|---------------|
A|-------7-5-3-5-|-----5---2-----|-3-3-3-7-5-3-5-|-----3---------| x4
E|-5-5-5---------|-3-3---3-------|---------------|-1-1---1-3-----|

[Interlude]
N.C

[Chorus]

"Oh clap your hands"

G|---------------|---------------|---------------|---------------|
D|---------------|---------------|---------------|---------------|
A|-------7-5-3-5-|-----5---2-----|-3-3-3-7-5-3-5-|-----3---------| x4
E|-5-5-5---------|-3-3---3-------|---------------|-1-1---1-3-----|

[Outro]

G|---------------|---------------|---------------|---------------|
D|---------------|---------------|---------------|---------------|
A|-------7-5-3-5-|-----5---2-----|-3-3-3-7-5-3-5-|-----3---------| 
E|-5-5-5---------|-3-3---3-------|---------------|-1-1---1-3-----|



************************************

| x   Dead note
| g   Grace note
| (n) Ghost note
| h   Hammer-on
| p   Pull-off
| r   Release
| >   Accented note
| t   Tapping
| b   Bend
| br  Bend release
| pb  Pre-bend
| pbr Pre-bend release
| /   Slide up
| \   Slide down
| ~   Vibrato
| s   Slap
| P   Pop
| PM  Palm mute
| TR  Trill
| N   Tremolo

************************************

            
            
Suggest correction
Creating personal tab
Creating personal tab
You can edit any tab online and save it as your Personal.

You can edit, replace or remove any tab part or add personal notes – all changes will be seen only by you.

Personal tabs can be accessed anytime from any device, even offline.
Learn more »
Give kudos to tab author, rate the tab!
1 2 3 4 5
comments
print report bad tab
1 comment total.
+1 reply
toddyV 726 Sep 16, 2016 12:54 PM

That is absolutely amazing definite 5 stars!!!

guest
You may want to rate the tab now too:
select rating
Wanna post a correction for this tab? Suggest correction