Oops, an error
Loading. Please wait.

Cloud Bass Tab

version 1
version 1

Whole song

Interactive

by Sia
302 views 9 this week
no commentswrite comment
1 2 3 4 5
please rate
add to favorites
launch autoscroll
font size
0
reset
guitar tuner
Autoscroll
slow
fast
+/-
esc
set tempo
stop
Help us to improve Ultimate-Guitar.com Take our survey!
×
Author
Difficulty
novice
Title: Cloud
Artist: Sia
Album: We Are Born
Music: Ryan Chandler
Tempo = 112
Electric Bass

Legend
L - tied note
x - dead note
h - hammer on/pull off
b - bend
s - slide
~ - vibrato
g - ghost note
> - accentuated note
t - trill
M - palm mute
. - staccato
P - popping (bass)
S - slapping (bass)
+ - tapping
W - wide vibrato
< - fade in
w - whammy bar
= - tremolo picking
v - brush up
^ - brush down
V - pick stroke up
n - pick stroke down


G |-------|-------|-------|-------|----------------|
D |-------|-------|-------|-------|----------------|
A |-------|-------|-------|-------|----------------|
E |-------|-------|-------|-------|--10s7--5s-4----|


----------------------------|----------------|----------------------------|
----------------------------|----------------|----------------------------|
----------------------------|----------------|----------------------------|
--4--------3L----3s---------|--10s7--5s-4----|--4--------3L----3s---------|


----------------|----------------------------|----------------|
----------------|----------------------------|----------------|
----------------|----------------------------|----------------|
--10s7--5s-4----|--4--------3L----3s---------|--10s7--5s-4----|


----------------------------|----------------|----------------------------|
----------------------------|----------------|----------------------------|
----------------------------|----------------|----------------------------|
--4--------3L----3s---------|--10s7--5s-4----|--4--------3L----3s---------|


----------------|----------------------------|----------------|
----------------|----------------------------|----------------|
----------------|----------------------------|----------------|
--10s7--5s-4----|--4--------3L----3s---------|--10s7--5s-4----|


----------------------------|----------------|----------------------------|
----------------------------|----------------|----------------------------|
----------------------------|----------------|----------------------------|
--4--------3L----3s---------|--10s7--5s-4----|--4--------3L----3----------|


----------------------------|----------------------------|
----------------------------|-----7-----7-----7-----7----|
----------------------------|----------------------------|
--4--------3L----3----------|--5-----5-----5-----5-------|


----------------------------|----------------------------|
-----7-----11s---11----11---|-----2-----2-----2-----2----|
----------------------------|----------------------------|
--5-----5-----9-----9-------|--0-----0-----0-----0-------|


----------------------------|----------------------------|
-----5-----5-----5-----5----|-----7-----7-----7-----7----|
----------------------------|----------------------------|
--3-----3-----3-----3-------|--5-----5-----5-----5-------|


----------------------------|----------------------------|
-----7-----11s---11----11---|-----2-----2-----2-----2----|
----------------------------|----------------------------|
--5-----5-----9-----9-------|--0-----0-----0-----0-------|


----------------------------|----------------------------|----------------|
-----5-----5-----5-----5----|-----5-----5-----5-----5----|----------------|
----------------------------|----------------------------|----------------|
--3-----3-----3-----3-------|--3-----3-----3-----3-------|--10s7--5s-4----|


----------------------------|----------------|----------------------------|
----------------------------|----------------|----------------------------|
----------------------------|----------------|----------------------------|
--4--------3L----3s---------|--10s7--5s-4----|--4--------3L----3s---------|


----------------|----------------------------|----------------|
----------------|----------------------------|----------------|
----------------|----------------------------|----------------|
--10s7--5s-4----|--4--------3L----3s---------|--10s7--5s-4----|


----------------------------|----------------|----------------------------|
----------------------------|----------------|----------------------------|
----------------------------|----------------|----------------------------|
--4--------3L----3s---------|--10s7--5s-4----|--4--------3L----3s---------|


----------------|----------------------------|----------------|
----------------|----------------------------|----------------|
----------------|----------------------------|----------------|
--10s7--5s-4----|--4--------3L----3s---------|--10s7--5s-4----|


----------------------------|----------------|----------------------------|
----------------------------|----------------|----------------------------|
----------------------------|----------------|----------------------------|
--4--------3L----3s---------|--10s7--5s-4----|--4--------3L----3----------|


----------------------------|----------------------------|
----------------------------|-----7-----7-----7-----7----|
----------------------------|----------------------------|
--4--------3L----3----------|--5-----5-----5-----5-------|


----------------------------|----------------------------|
-----7-----11s---11----11---|-----2-----2-----2-----2----|
----------------------------|----------------------------|
--5-----5-----9-----9-------|--0-----0-----0-----0-------|


----------------------------|----------------------------|
-----5-----5-----5-----5----|-----7-----7-----7-----7----|
----------------------------|----------------------------|
--3-----3-----3-----3-------|--5-----5-----5-----5-------|


----------------------------|----------------------------|
-----7-----11s---11----11---|-----2-----2-----2-----2----|
----------------------------|----------------------------|
--5-----5-----9-----9-------|--0-----0-----0-----0-------|


----------------------------|----------------------------|
-----5-----5-----5-----5----|-----7-----7-----7-----7----|
----------------------------|----------------------------|
--3-----3-----3-----3-------|--5-----5-----5-----5-------|


----------------------------|----------------------------|
-----7-----11s---11----11---|-----2-----2-----2-----2----|
----------------------------|----------------------------|
--5-----5-----9-----9-------|--0-----0-----0-----0-------|


----------------------------|----------------------------|
-----5-----5-----5-----5----|-----7-----7-----7-----7----|
----------------------------|----------------------------|
--3-----3-----3-----3-------|--5-----5-----5-----5-------|


----------------------------|----------------------------|
-----7-----11s---11----11---|-----2-----2-----2-----2----|
----------------------------|----------------------------|
--5-----5-----9-----9-------|--0-----0-----0-----0-------|


----------------------------|----------------------------|----------------|
-----5-----5-----5-----5----|-----5-----5-----5-----5----|----------------|
----------------------------|----------------------------|----------------|
--3-----3-----3-----3-------|--3-----3-----3-----3-------|--10s7--5s-4----|


----------------------------|----------------|----------------------------|
----------------------------|----------------|----------------------------|
----------------------------|----------------|----------------------------|
--4--------3L----3s---------|--10s7--5s-4----|--4--------3L----3s---------|


----------------|----------------------------|----------------|
----------------|----------------------------|----------------|
----------------|----------------------------|----------------|
--10s7--5s-4----|--4--------3L----3s---------|--10s7--5s-4----|


----------------------------|----------------------------|
----------------------------|----------------------------|
----------------------------|----------------------------|
--4--------3L----3----------|--4--------3L----3----------|


----------------------------|----------------------------|
-----7-----7-----7-----7----|-----7-----11s---11----11---|
----------------------------|----------------------------|
--5-----5-----5-----5-------|--5-----5-----9-----9-------|


----------------------------|----------------------------|
-----2-----2-----2-----2----|-----5-----5-----5-----5----|
----------------------------|----------------------------|
--0-----0-----0-----0-------|--3-----3-----3-----3-------|


----------------------------|----------------------------|
-----7-----7-----7-----7----|-----7-----11s---11----11---|
----------------------------|----------------------------|
--5-----5-----5-----5-------|--5-----5-----9-----9-------|


----------------------------|----------------------------|
-----2-----2-----2-----2----|-----5-----5-----5-----5----|
----------------------------|----------------------------|
--0-----0-----0-----0-------|--3-----3-----3-----3-------|


----------------------------|----------------------------|
-----7-----7-----7-----7----|-----7-----11s---11----11---|
----------------------------|----------------------------|
--5-----5-----5-----5-------|--5-----5-----9-----9-------|


----------------------------|----------------------------|
-----2-----2-----2-----2----|-----5-----5-----5-----5----|
----------------------------|----------------------------|
--0-----0-----0-----0-------|--3-----3-----3-----3-------|


----------------------------|----------------------------|
-----7-----7-----7-----7----|-----7-----11s---11----11---|
----------------------------|----------------------------|
--5-----5-----5-----5-------|--5-----5-----9-----9-------|


----------------------------|----------------------------|
-----2-----2-----2-----2----|-----5-----5-----5-----5----|
----------------------------|----------------------------|
--0-----0-----0-----0-------|--3-----3-----3-----3-------|


----------------------------|----------------|----------------------------|
-----5-----5-----5-----5----|----------------|----------------------------|
----------------------------|----------------|----------------------------|
--3-----3-----3-----3-------|--10s7--5s-4----|--4--------3L----3L---------|


-------||
-------||
-------||
--3----||

Suggest correction
Give kudos to tab author, rate the tab!
1 2 3 4 5
comments
print report bad tab
guest
You may want to rate the tab now too:
select rating
Please do not post tabs as comments. Select "correction" instead!